Recess
Muse
Acordes

Subida por cristibaciu



+A
-A
(intro)
------------------------------------------------|
-13----------13----------13----------13---------|
----16----16----16----16----16----16----16----16|
-------14----------14----------14----------14---|
------------------------------------------------|
------------------------------------------------|

---------------------------------------------------------------|
-15----------15----------15----------15----------13----------13|
----16----16----16----16----16----16----16----16----16----16---|
-------15----------15----------15----------15----------14------|
---------------------------------------------------------------|
---------------------------------------------------------------|

(riff 1)
-sl-----------------------------------------sl-----------------|
-16-17--------------------------------------16-17--------------|
-------15-16-12-13--------------12-13-15-16-------16-17-13-14--|
--------------------13-14-13-14--------------------------------|
---------------------------------------------------------------|
---------------------------------------------------------------|

---------------------------------------------------------------|
---------------------------------------------------------------|
-------------13-14-16-17---------------------------------------|
-13-14-13-14---------------------------------------------------|
---------------------------------------------------------------|
---------------------------------------------------------------|

---------------------------------------------------------------|
-1-1-----------------------------------------------------------|
-2-2-------14-13------------2-1--------------------------------|
-2-2----14-------15-------2-----3------------------------------|
-0-0-----------------------------------------------------------|
---------------------------------------------------------------|

(riff 1 4x)

---------------------------------------------------------------|
-18-18-18-18-17-17-17-17-18-18-18-18-17-17-17-17-18-18-20-20---|
---------------------------------------------------------------|
---------------------------------------------------------------|
---------------------------------------------------------------|
---------------------------------------------------------------|

---------------------------------------------------------------|
-21-21-21-21-22------------------------------------------------|
---------------------------------------------------------------|
---------------------------------------------------------------|
------------------------------------------2-2---2--------------|
--------------------------------------0-0-----0----------------|

ACORDES PARA GUITARRA

PIANO UKELELE


COMENTARIOS

Aún no hay comentarios,

¡escribe el primero!

Escribe una pregunta, duda o comentario sobre esta canción, te responderemos a la brevedad.

Las más tocadas de Muse

Toca una Canción al Azar de Muse