Sing For Absolution
Muse
Acordes

Subida por Lantigua
Álbum: Absolution ( 2003)


Más Versiones
Ver. 2 Ver. 3
+A
-A
Campo harmônico de F (usado na música): F7M ; Gm7 ; Am7 ; Bb7M ; C7 ; Dm7 ; Em7(b5).

(Introdução)

E|1-1-------3-3-1-1--------3-3-1-1-------3-3-1-1-------1-1-0-0------1-1-0-0------1-1-0-0------|
B|---------------------------------------------------------------3-3----------3-3----------2-2|
G|---2-2-3-3-------2-2-3-3--------2-2-3-3-------2-2-3-3-------0-0----------0-0----------0-0---|
D|--------------------------------------------------------------------------------------------|
A|--------------------------------------------------------------------------------------------|
E|--------------------------------------------------------------------------------------------|

E|1-1-0-0------0-0|
B|----------2-2---|
G|-------0-0------|
D|----------------|
A|----------------|
E|----------------|

Dm
Lips are turned blue
Bb7M
A kiss that can't renew
Em7
I only dream of you
A
My beautiful...

Dm
Tiptoe to your room
Bb7M
A starlight in the gloom
Em7
I only dream of you
A
And you never knew

(riff) A|---0-0-2-3-|

C Gm7
Sing for absolution
C
I will be singing
Gm7
And falling from your grace
Ooohhh......

(repete introdução)

A Dm
There's nowhere left to hide
Bb7M
And no one to confide
Em7
The truth burns deep inside
A
And will never die...

Dm (no fundo,a introdução)
Lips are turned blue
Bb7M
A kiss that can't renew
Em7
I only dream of you
A
My beautiful

(riff) A|---0-0-2-3-|

C Gm7
Sing for absolution
C
I will be singing
Gm7
And falling from your grace
Oooooh!!!

(Distorção de guitarra no solo)
Dm Bb7M Em7 A
E|------------------------------------------------------------------------|
B|-3(xxxxxxxxxxxx)-4-5-------------4-5--------------5-6-6(xx)-5-4-5(xxxxx)|
G|--------------------3(xxxxxxxxxxx)---1(xxxxxxxxx)-----------------------|
D|------------------------------------------------------------------------|
A|------------------------------------------------------------------------|
E|------------------------------------------------------------------------|

C Gm7
Sing for absolution
C
I will be singing
Gm7
And falling from your grace
Dm
OOOOOOOOOOOOOOHHHHH!

Bb7M
Our wrongs remain unrectified
Em7 A
And our souls won't be exhumed...

(riff 2)
E|1-1-------3-3-1-1-------3-3-1-1-------3-3-1-1-------1-1--------|
B|-------------------------------------------------------3(xxxxx)|
G|---2-2-3-3-------2-2-3-3-------2-2-3-3-------2-2-3-3-----------|
D|---------------------------------------------------------------|
A|---------------------------------------------------------------|
E|---------------------------------------------------------------|

(riff 3)
E|--1-1-1---1-1-1---1-1-1-------|
B|-1-1-1-1-1-1-1-1-1-1-1-1------|
G|2-------2-------2-------2(xxx)|
D|------------------------------|
A|------------------------------|
E|------------------------------|

ACORDES PARA GUITARRA

PIANO UKELELE
F
Fmaj7
Gm7
Am7
Bbmaj7
C7
Dm7
Em7b5
Dm
Em7
A
C


COMENTARIOS

Aún no hay comentarios,

¡escribe el primero!

Escribe una pregunta, duda o comentario sobre esta canción, te responderemos a la brevedad.

Las más tocadas de Muse

Toca una Canción al Azar de Muse
F
Fmaj7
Gm7
Am7
Bbmaj7
C7
Dm7
Em7b5
Dm
Em7
A
C