Supremacy
Muse
Acordes

Subida por npabon098
Álbum: The 2nd Law ( 2012)


Más Versiones
Ver. 2 Ver. 3 Ver. 4 Ver. 5
+A
-A
Tuning: DROP A (AADGBe)

Intro:
E|--x-x-x-x---------------x-x-x-x---------------x-x-x-x-----------------x-x-x-x------------------|
B|--x-x-x-x---------------x-x-x-x---------------x-x-x-x-----------------x-x-x-x------------------|
G|--x-x-x-x----2-2-2-2----x-x-x-x----4-4-4-4----x-x-x-x----5-5-5-5------x-x-x-x----7-7-7-7-------|
D|--x-x-x-x---------------x-x-x-x---------------x-x-x-x-----------------x-x-x-x------------------|
A|--x-x-x-x----0-0-0-0----x-x-x-x----2-2-2-2----x-x-x-x----3-3-3-3------x-x-x-x----5-5-5-5-------|
E|--x-x-x-x---------------x-x-x-x---------------x-x-x-x-----------------x-x-x-x------------------|
(On 1st fret)

E|--------------------------------------------------------------------|
B|--------------------------------------------------------------------|
G|--------------------------------------------------------------------| (2x)
D|--------------------------------------------------------------------|
A|--------------------------------------------------------------------|
E|--0-3-0-7-0-8-0-7-0-0-10-11-12---0-3-0-7-0-8-0-7-0-10-11-12-15-----|

E|---------------------------------|
B|---------------------------------|
G|---------------------------------|
D|---------------------------------|
A|---------------------------------|
E|--0-3-0-7-0-8-0-7-0-0-10-11-12-0-|

E|----------------------------------------------------------|
B|----------------------------------------------------------|
G|----------------------------------------------------------|
D|----------------------------------------------------------|
A|--0-0-0-0----2-2-2-2----3-3-3-3----5-5-5-5----6-6-6-6-6-6-|
E|----------------------------------------------------------|

( Am )

Am
Wake to see
E
Your true emancipation is a fantasy.
Dm Am
All the seas have risen up and overcome the brave.

Am E
Greatness dies, unsung and lost, invisible to history.
Dm Am
Embedded spies brainwashing our children to be mean.

Refrão:
F C
You don't have long
Am E
I am on to you
F Am7 E4 E
The time, it has come to destro------y...
Am
Your supremacy

Solo:
Am
E|----------------------------
B|----------------------------
G|--9-------------------------
D|-----------10-7-------------
A|-----------------------7----
E|----------------------------

E|---------------------------------------------------------------------------
B|---------------------------------------------------------------------------
G|-----------------------------9--------7------------------------------------
D|--7--------9--------10-------------------------10-------9h-10h9--7---------
A|---------------------------------------------------------------------------
E|---------------------------------------------------------------------------

E Dm
E|---------------------------------------------------------------------------
B|---------------------------------------------------------------------------
G|---------------------------------------------7-----------------------------
D|--9--------6--2~~------------------------------7---------------------------
A|-------------------------------------------------8--------0----------------
E|---------------------------------------------------------------------------

Am
E|----------------------------------------------------------------------------|
B|----------------------------------------------------------------------------|
G|-----------------------------9--------7-------------------------------------|
D|-----------------------------------------------10-------9h-10h9--7--10~~----| 2x
A|--5--------7--------8-------------------------------------------------------|
E|----------------------------------------------------------------------------|

F C
You don't have long
Am E
I am on to you
F Am7 E4 E
The time, it has come to destro------y...
Am
Your supremacy

Solo Version 1

Part1
E|-------------------------------------------------------------------------------------------------|
B|-------------------------------------------------------------------------------------------------|
G|--12h13h14s17---------------12h13h14s17---------------12h13h14p13-12h13h14s17--------------------|
D|---------------12h13h14s17---------------12h13h14s17---------------------------------------------|
A|------------------------------------------------------------------------------10h11h12s15--------|
A|-------------------------------------------------------------------------------------------------|

E|------------------------------------------------|
B|------------------------------------------------|
G|---------------12h13h14s17----------------------|
D|--12h13h14s17-----------------12h13h14s17-------|
A|------------------------------------------------|
A|------------------------------------------------|

Part2
E|-------------------------------------------------------------------------------------------------------------|
B|-------------------------------------------------------------------------------------------------------------|
G|--12h13h14s17---------------12h13h14s17---------------12h13h14s17-12h13h14p13-12h13h14s17--------------------|
D|---------------12h13h14s17---------------12h13h14s17---------------------------------------------------------|
A|------------------------------------------------------------------------------------------10h11h12s15--------|
A|-------------------------------------------------------------------------------------------------------------|

E|------------------------------------------------------------------------|
B|------------------------------------------------------------------------|
G|---------------12h13h14s17-14h17p14h17p14h17p14h17p14h17~---------------|
D|--12h13h14s17-----------------------------------------------------------|
A|------------------------------------------------------------------------|
A|------------------------------------------------------------------------|

Solo Version 2

Part1
E|----------------------------------------------------------15----15-16-17-16-15-16-17-20------|
B|------------13---------------------------13-----15-16-17-------------------------------------|
G|--12-13-14---------------12----12-13-14------------------------------------------------------|
D|----------------12-13-14---------------------------------------------------------------------|
A|---------------------------------------------------------------------------------------------|
A|---------------------------------------------------------------------------------------------|

E|----------------------------------------------------------15----15-16-17-20----------|
B|-------------13---------------------------13----15-16-17-----------------------------|
G|---12-13-14---------------12----12-13-14---------------------------------------------|
D|-----------------12-13-14------------------------------------------------------------|
A|-------------------------------------------------------------------------------------|
A|-------------------------------------------------------------------------------------|

Part2
E|----------------------------------------------------------15----15-16-17-16-15-16-17-20------|
B|------------13---------------------------13-----15-16-17-------------------------------------|
G|--12-13-14---------------12----12-13-14------------------------------------------------------|
D|----------------12-13-14---------------------------------------------------------------------|
A|---------------------------------------------------------------------------------------------|
A|---------------------------------------------------------------------------------------------|

E|-------------------------------------------------------------------------------|
B|-------------13------------------8-9-10-13-(10-13)*----------------------------|
G|---12-13-14---------------12---------------------------------------------------|
D|-----------------12-13-14------------------------------------------------------|
A|-------------------------------------------------------------------------------|
A|-------------------------------------------------------------------------------|
*Repeated as many times as you need

Ends on (clean overdrive with a little delay or with a vibrato)

E|------------0------------------------|
B|----------1--------------------------|
G|--------1----------------------------|
D|------2------------------------------|
A|-0-----------------------------------|
A|-------------------------------------|

ACORDES PARA GUITARRA

PIANO UKELELE
Am
E
Dm
F
C
Am7
E4


COMENTARIOS

Aún no hay comentarios,

¡escribe el primero!

Escribe una pregunta, duda o comentario sobre esta canción, te responderemos a la brevedad.

Las más tocadas de Muse

Toca una Canción al Azar de Muse
Am
E
Dm
F
C
Am7
E4