The Globalist
Muse
Acordes

Subida por Seba
Álbum: Drones ( 2015)



+A
-A
[Intro]
E|---------------------------------------------------|
B|---------------------------------------------------|
G|---------------------------------------------------|
D|---------------------------------------------------| (8x)
A|---------------------------------------------------|
A|--12-0-0-12-0-0-12-0-0-12-0-0-6-6------------------|

[Main Riff] (x2)
E|---------------------------------------------------|
B|---------------------------------------------------|
G|---------------------------------------------------|
D|---------------------------------------------------| (2x)
A|---------------------------------------------------|
A|--10-0-0-10-0-0-10-0-0-10-0-0-9-9------------------|

E|---------------------------------------------------------------------|
B|---------------------------------------------------------------------|
G|---------------------------------------------------------------------|
D|---------------------------------------------------------------------|
A|---------------------------------------------------------------------|
A|--7-0-0-7-0-0-7-0-0-7-0-0-5-5---7-0-0-7-0-0-7-0-0-7-0-0-12-12--------|

E|---------------------------------------------------|
B|---------------------------------------------------|
G|---------------------------------------------------|
D|---------------------------------------------------| (2x)
A|---------------------------------------------------|
A|--13-0-0-13-0-0-13-0-0-13-0-0-10-10----------------|

E|---------------------------------------------------|
B|---------------------------------------------------|
G|---------------------------------------------------|
D|---------------------------------------------------| (2x)
A|---------------------------------------------------|
A|--12-0-0-12-0-0-12-0-0-12-0-0-10-10----------------|

E|---------------------------------------------------------------------|
B|---------------------------------------------------------------------|
G|---------------------------------------------------------------------|
D|---------------------------------------------------------------------|
A|---------------------------------------------------------------------|
A|--5-0-0-5-0-0-5-0-0-5-0-0-3-3---5-0-0-5-0-0-5-0-0-5-0-0-8-8----------|

E|-------------------------------------------------------------------|
B|-------------------------------------------------------------------|
G|-------------------------------------------------------------------|
D|-------------------------------------------------------------------| (2x)
A|-------------------------------------------------------------------|
A|--7-0-0-7-0-0-7-0-0-7-0-0-5-5--------------------------------------|

E|-------------------------------------------------------------------|
B|-------------------------------------------------------------------|
G|-------------------------------------------------------------------|
D|-------------------------------------------------------------------| (2x)
A|-------------------------------------------------------------------|
A|--5-0-0-5-0-0-5-0-0-5-0-0-3-3--------------------------------------|

E|-------------------------------------------------------------------|
B|-------------------------------------------------------------------|
G|-------------------------------------------------------------------|
D|-------------------------------------------------------------------|
A|-------------------------------------------------------------------|
A|--2-0-0-2-0-0-2-0-0-2-0-0-7-7-3-0-0-3-0-0-3-0-0-3-0-0-9-9----------|

Pre-Riff:
(before the Solo)
E|---------------------------------------------------|
B|---------------------------------------------------|
G|---------------------------------------------------|
D|---------------------------------------------------| (4x)
A|---------------------------------------------------|
A|--12-0-0-12-0-0-12-0-0-12-0-0-6-6------------------|

E|---------------------------------------------------|
B|---------------------------------------------------|
G|---------------------------------------------------|
D|---------------------------------------------------|
A|---------------------------------------------------|
A|--13-0-0-13-0-0-13-0-0-13-0-0-10-10-(x4)-----------|

Solo:

E|-----------------------------------------------12-10----10-------------|
B|-----------------------------15-13-12-13----13-------13----12----------|
G|--14----14-17-16-14-13----13-------------14----------------------------|
D|-----14----------------14----------------------------------------------|
A|-----------------------------------------------------------------------|
A|-----------------------------------------------------------------------|

E|----13-12-10-----------------------------------------------------------|
B|-13------------13-10-13-10-13-10-12-9-12-9-12-9------------------------|
G|-----------------------------------------------------------------------|
D|-----------------------------------------------------------------------|
A|-----------------------------------------------------------------------|
A|-----------------------------------------------------------------------|

E|-----------------------------19-20-21-22~------------------------------|
B|-13-10-13-10-13-10-14-11-14--------------------------------------------|
G|-----------------------------------------------------------------------|
D|-----------------------------------------------------------------------|
A|-----------------------------------------------------------------------|
A|-----------------------------------------------------------------------|

ACORDES PARA GUITARRA

PIANO UKELELE


COMENTARIOS

Aún no hay comentarios,

¡escribe el primero!

Escribe una pregunta, duda o comentario sobre esta canción, te responderemos a la brevedad.

Las más tocadas de Muse

Toca una Canción al Azar de Muse