The Groove
Muse
Acordes

Subida por Jerry2012


Más Versiones
Ver. 2
+A
-A
(intro)

E|---------------|-----------|--------------------|------------|
B|---------------|-----------|--------------------|------------|
G|---------------|---6--6----|--------------------|------------| 3x
D|----4-7-4------|---7-------|--------7h9p7-------|--9-7-------|
A|---------4-3-2-|--0--4-5-6-|---7-7h9-----9p7-7h9|-9----9-8-9-|
E|---2-2---------|-----------|--0-0---------------|------------|

E|---------------|-----------|--------------------|---------------|
B|---------------|-----------|--------------------|---------------|
G|---------------|---6--6----|--------------------|---------------|
D|----4-7-4------|---7-------|--------7h9p7-------|-----7-4-------|
A|---------4-3-2-|--0--4-5-6-|---7-7h9-----9p7-7h9|---------4-3-2-|
E|---2-2---------|-----------|--0-0---------------|---------------|

(chorus)

E|-----------|---------|-------------------|---------------|
B|-----------|---------|-------------------|---------------|
G|---6--6----|---------|-------------------|---------------|
D|---7-------|----6----|---9--12-----------|-----7-4-------|
A|--0--4-5-6-|--7------|-------------------|---------4-3-2-|
E|-----------|-0-4-5-6-|--7--10--12-13-14--|---------------|

(solo)

E|----------------------|----------------------|------------|----------------------|
B|----------------------|----------------------|------------|----------------------|
G|-11-11-11p9--9--------|----------------------|------------|----------------------|
D|-----------11-11-9h11-|-11-11-9-7-9p7-9^11^9-|-7-7--------|--7^9-9/11------------|
A|----------------------|----------------------|--9--9-7h9~-|----------------------|
E|----------------------|----------------------|------------|-2--------5p2-5-2-0h2-|

ACORDES PARA GUITARRA

PIANO UKELELE


COMENTARIOS

Aún no hay comentarios,

¡escribe el primero!

Escribe una pregunta, duda o comentario sobre esta canción, te responderemos a la brevedad.

Las más tocadas de Muse

Toca una Canción al Azar de Muse