The Small Print
Muse
Acordes

Subida por BRAVOIGNACIO
Álbum: Absolution ( 2003)


Más Versiones
Ver. 2 Ver. 3
+A
-A
Intro
e|----------------------------------------
B|----------3-----------------------------
G|----------------------------------------
D|-3-4-3-4-----4-3-4----------------------
A|----------------------------------------
D|---------------------------------------- X 12

Verse
e|----------------------------------------
B|----------------------------------------
G|-7-------9----11------12-------14-------
D|-0-------0-----0-------0--------0-------
A|-5-(X12)-7-(X4)9-(x8)-10-(X4)-12-(X4)--
D|-0--------------------------------------

e|----------------------------------------
B|----------------------------------------
G|-16------18--16-16------15--------------
D|--0--------------0-------0--------------
A|-14-(X12)-------14-(X8)-13-(X8)---------
D|---------------------------------------- X2

Pre-Chorus
e|-2-----------------------------------
B|-2-----------------------------------
G|-4----4-4-4-4------------------------
D|-4----4-4-4-4-4-4-4-4-4-4-4-4--------
A|-2----2-2-2-2-4-4-4-4-4-4-4-4--------
D|--------------4-4-4-4-4-4-4-4--------
* * * * * * * * * * * *
e|----------------------------------------
B|----------------------------------------
G|----------------------------------------
D|-0-0-0-0-0-0-0-0-4-4-4-4-4-4-4-4--------
A|-0-0-0-0-0-0-0-0-4-4-4-4-4-4-4-4--------
D|-0-0-0-0-0-0-0-0-4-4-4-4-4-4-4-4-------- X2
* * * * * * * * * * * * * * * *

Chorus
e|------------------------------------------
B|------------------------------------------
G|-9-9-9-9-9-9-9-9-11-11-11-11-11-11-11-11--
D|-9-9-9-9-9-9-9-9-11-11-11-11-11-11-11-11--
A|-7-7-7-7-7-7-7-7-9--9--9--9--9--9--9--9---
D|------------------------------------------

e|-2-----------------------------------
B|-2-----------------------------------
G|-4---4-4-4-4-7-7-7-7-7-7-7-7---------
D|-4---4-4-4-4-7-7-7-7-7-7-7-7---------
A|-2---2-2-2-2-5-5-5-5-5-5-5-5---------
D|-------------0-0-0-0-0-0-0-0---------
* * * * * * * * * * * *
e|----------------------------------------
B|----------------------------------------
G|----------------------------------------
D|-4-4-4-4-4-4-4-4-4-4-4-4-4-4-4-4--------
A|-4-4-4-4-4-4-4-4-4-4-4-4-4-4-4-4--------
D|-4-4-4-4-4-4-4-4-4-4-4-4-4-4-4-4--------
* * * * * * * * * * * * * * * *

e|---------------------------------------
B|---------------------------------------
G|-9-9-9-9-9-9-9-9-----------------------
D|-9-9-9-9-9-9-9-9--7-7-7-7-7-7-7-7------
A|-7-7-7-7-7-7-7-7--7-7-7-7-7-7-7-7------
D|------------------7--7-7-7-7-7-7-7------

e|----------------------------------------
B|----------------------------------------
G|-11---------12-------11^ ---
D|-11---------12-----------------------------
A|--9-(X16)---10-(X16)--------------------
D|----------------------------------------

e|---------------------------------------
B|---------------------------------------
G|-9-9-9-9-9-9-9-9-----------------------
D|-9-9-9-9-9-9-9-9--7-7-7-7-7-7-7-7------
A|-7-7-7-7-7-7-7-7--7-7-7-7-7-7-7-7------
D|------------------7-7-7-7-7-7-7-7------

e|----------------------------------------
B|----------------------------------------
G|-7-7-7-7-7-7-7-7------------------------
D|-7-7-7-7-7-7-7-7-4-4-4-4-4-4-4-4--------
A|-5-5-5-5-5-5-5-5-4-4-4-4-4-4-4-4--------
D|-----------------4-4-4-4-4-4-4-4--------

e|----------------------------------------
B|----------------------------------------
G|----------------------------------------
D|-5-5-5-5-5-5-5-5-5-5-5-5-5-5-5-5--------
A|-5-5-5-5-5-5-5-5-5-5-5-5-5-5-5-5--------
D|-5-5-5-5-5-5-5-5-5-5-5-5-5-5-5-5--------

e|----------
B|----------
G|----------
D|--9-------
A|--9-------
D|--9-------

ACORDES PARA GUITARRA

PIANO UKELELE


COMENTARIOS

Aún no hay comentarios,

¡escribe el primero!

Escribe una pregunta, duda o comentario sobre esta canción, te responderemos a la brevedad.

Las más tocadas de Muse

Toca una Canción al Azar de Muse