Uprising
Muse
Acordes

Subida por raquelsb
Álbum: The Resistance ( 2009)


Más Versiones
Ver. 2 Ver. 3 Ver. 4 Ver. 5

Cambiar Cifrado
Americano Latino

Cambiar Tonalidad
-1 +1

Partir Pantalla Imprimir FAQ

+A
-A
(intro) Dm Gm F A Gm F A7/C#
(Dm Gm F G#dim7 A Gm F A7/C# Dm)

E|-----------------------------------------------------|
B|-10-6--------------10-5-----11-13-11-10--------------|
G|------7-----------------6----------------------------|
D|--------7-8~10-8-7--------7--------------------------|
A|-----------------------------------------------------|
D|-----------------------------------------------------|

E|-------------------------------------------------------------------|
B|-10-6-------6-10---11-10-8-10-----10-5-------5-8---8-6-5-6---14-14-|
G|------7---7------7---------------------6---6-----6-----------------|
D|--------7--------------------------------7-------------------------|
A|-------------------------------------------------------------------|
D|-------------------------------------------------------------------|

E|----------------
B|----15--15------
G|----17b-17b-----
D|----------------
A|----------------
D|----------------

Dm Gm
Paranoia is in bloom, the PR
F
Transmissions will resume
A
They'll try to push drugs that
Gm
Keep us all dumbed down and hope that
Dm/F A7/C# Dm
We will never see the truth around

(So come on)

E|----------------
B|----15--15------
G|----17b-17b-----
D|----------------
A|----------------
D|----------------

Dm Gm
Another promise, another seed, another
F G#dim7
Packaged lie to keep us trapped in greed
A
And all the green belts wrapped around our minds
Gm Dm/F A7/C# Dm
...and endless red tape to keep the truth confined

(So come on)


E|----------------
B|----15--15------
G|----17b-17b-----
D|----------------
A|----------------
D|----------------

(refrão)
Dm Gm7 F
They will not force us
A Gm Dm/F A7/C#
They will stop degrading us
Dm Gm7 F G#dim7
They will not control us
A Gm Dm/F A7/C# Dm
We will be victorious


E|----------------
B|----15--15------
G|----17b-17b-----
D|----------------
A|----------------
D|----------------

Tocar durante a segunda parte (Interchanging mind.......)

E|------------------------------------------------------------------------------------
B|------------------------------------------------------------------------15---15-----
G|--77-777-777-7777777-55-555-555-55555-66-666-666-66666-77-777-7777777---17b--17b----
D|------------------------------------------------------------------------------------
A|--55-555-555-5555555-33-333-333-33333-44-444-444-44444-55-555-5555555---------------
D|------------------------------------------------------------------------------------

Na versão ao vivo o Matt toca, ao invés do bend acima, um power cord na 8ª casa:

E|--------------------
B|--------------------
G|-10-10--------------
D|--------------------
A|--8--8--------------
D|--------------------

Dm Gm
Interchanging mind-control come let the
F A
Revolution take its toll if you could
Gm
Flick the switch and open your third eye, you'd see that
Dm/F A7/C# Dm
We should never be afraid to die

(So come on)


E|----------------
B|----15--15------
G|----17b-17b-----
D|----------------
A|----------------
D|----------------

Dm Gm
Rise up and take the power back, it's time that
F G#dim7
The fat cats had a heart attack, you know that
A Gm
Their time is coming to an end, we have to
Dm/F A7/C# Dm
Unify and watch our flag ascend


E|----------------
B|----15--15------
G|----17b-17b-----
D|----------------
A|----------------
D|----------------

(refrão)
Dm Gm7 F
They will not force us
A Gm Dm/F A7/C#
They will stop degrading us
Dm Gm7 F G#dim7
They will not control us
A Gm Dm/F A7/C# Dm
We will be victorious

Chorus:
E|--5----5-------5--5----5-------5--|--5----5-------5--5----5--5----5--|
B|--6----6-------6--6----6-------6--|--6----6-------6--6----6--6----6--|
G|--7----7-------7--7----7-------7--|--7----7-------7--7----7--7----7--|
D|--7----7-------7--7----7-------7--|--7----7-------7--7----7--7----7--|
A|----------------------------------|----------------------------------|
D|----------------------------------|----------------------------------|

E|--6----6-------6--6----6-------6--|--5----5-------5--5----5--5----5--|
B|--8----8-------8--8----8-------8--|--6----6-------6--6----6--6----6--|
G|--7----7-------7--7----7-------7--|--5----5-------5--5----5--5----5--|
D|--8----8-------8--8----8-------8--|--7----7-------7--7----7--7----7--|
A|----------------------------------|----------------------------------|
D|----------------------------------|----------------------------------|

E|--5----5-------5--5----5-------5--|--5----5-------5--5----5--5----5--|
B|--5----5-------5--5----5-------5--|--5----5-------5--5----5--5----5--|
G|--6----6-------6--6----6-------6--|--6----6-------6--6----6--6----6--|
D|--7----7-------7--7----7-------7--|--7----7-------7--7----7--7----7--|
A|----------------------------------|----------------------------------|
D|----------------------------------|----------------------------------|

E|--6----6-------6--6----6-------6--|--5----5-------5------------------|
B|--8----8-------8--8----8-------8--|--6----6-------6--8----8--8----8--|
G|--7----7-------7--7----7-------7--|--5----5-------5--6----6--6----6--|
D|--8----8-------8--8----8-------8--|--7----7-------7--7----7--7----7--|
A|----------------------------------|----------------------------------|
D|----------------------------------|----------------------------------|

E|--5----5-------5--5----5-------5--|--5----5-------5--5----5--5----5--|
B|--6----6-------6--6----6-------6--|--6----6-------6--6----6--6----6--|
G|--7----7-------7--7----7-------7--|--7----7-------7--7----7--7----7--|
D|--7----7-------7--7----7-------7--|--7----7-------7--7----7--7----7--|
A|----------------------------------|----------------------------------|
D|----------------------------------|----------------------------------|

E|--6----6-------6--6----6-------6--|--5----5-------5------------------|
B|--8----8-------8--8----8-------8--|--6----6-------6--6----6--6----6--|
G|--7----7-------7--7----7-------7--|--5----5-------5--7----7--7----7--|
D|--8----8-------8--8----8-------8--|--7----7-------7--6----6--6----6--|
A|----------------------------------|----------------------------------|
D|----------------------------------|----------------------------------|

E|--5----5-------5--5----5-------5--|--5----5-------5--5----5--5----5--|
B|--5----5-------5--5----5-------5--|--5----5-------5--5----5--5----5--|
G|--6----6-------6--6----6-------6--|--6----6-------6--6----6--6----6--|
D|--7----7-------7--7----7-------7--|--7----7-------7--7----7--7----7--|
A|----------------------------------|----------------------------------|
D|----------------------------------|----------------------------------|

E|--6----6-------6--6----6-------6--|--5----5-------5--5----5--------------|
B|--8----8-------8--8----8-------8--|--6----6-------6--5----5--15-----15---|
G|--7----7-------7--7----7-------7--|--5----5-------5--6----6--17b----17b--|
D|--8----8-------8--8----8-------8--|--7----7-------7--7----7--------------|
A|----------------------------------|--------------------------------------|
D|----------------------------------|--------------------------------------|


(solo 3x)
E|--------------------------------------------------------------------------------------------|
B|----------------------------------------------------------------10-11-10-11-10---10-10-8--10|
G|------------------14-14-12-14-10-14-9-14----14----14----14------X--X--X--X--X----X--X--X--X-|
D|-----------------------------------------12----10---------------7--8--7--8--7----7--7--5--7-|
A|---------345-4x--------------------------------------13----12-------------------------------|
D|-0-3-567------------------------------------------------------------------------------------|

E|--------|
B|--15----|
G|--17b-8x|
D|--------|
A|--------|
D|--------| (3x)

Solo: Dm G F A G F A7/C#
(Dm G F A G F A7/C#)
(Dm G F G#dim7 A G F A7/C# Dm)

(refrão)
Dm Gm7 F A7/C#
They will not force us
A Gm Dm/F G#dim7
They will stop degrading us
Dm Gm7 F A7/C#
They will not control us
A Gm Dm/F A7/C# Dm
We will be victorious

Na versão ao vivo, no final da música, ele faz:

E|---------------------------------------------------------------------------------|
B|-------------------------------------------------------------15--15--------------|
G|----------------------------------7--10--10-9--5-4~~~--------17b-17b-------------|
D|-0-3-----------------------------------------------------------------------------|
A|----------345---------345--4x----------------------------------------------------|
D|------567-----0-3-567------------------------------------------------------------|

( Dm Gm F G#dim7 A Gm F A7/C# Dm )

ACORDES PARA GUITARRA

PIANO UKELELE
Dm
Gm
F
A
A7/C#
G#dim7
Dm/F
Gm7
G


COMENTARIOS

Aún no hay comentarios,

¡escribe el primero!

Escribe una pregunta, duda o comentario sobre esta canción, te responderemos a la brevedad.

Las más tocadas de Muse

Toca una Canción al Azar de Muse
Dm
Gm
F
A
A7/C#
G#dim7
Dm/F
Gm7
G