Yes Please
Muse
Acordes

Subida por Yuli



+A
-A
(afinação 1/2 abaixo)

(intro)
|---------------------------------|---------------------------------|
|---------------------------------|---------------------------------|
|---------------------------------|---------------------------------|
|-0-0-0-0-0-0-0-0-0-0-0-0-0-0-0-0-|-0-0-0-0-0-0-0-0-0-0-0-0-0-0-0-0-|
|---------------------------------|-----------------0-0-0-0-0-0-0-0-|
|---------------------------------|---------------------------------|

|---------------------------------|---------------------------------|
|-3-3-3-3-3-3-3-3-5-5-5-5-5-5-5-5-|-6-6-6-6-6-6-6-6-6-6-6-6-6-6-6-6-|
|-2-2-2-2-2-2-2-2-3-3-3-3-3-3-3-3-|-3-3-3-3-3-3-3-3-3-3-3-3-3-3-3-3-|
|-0-0-0-0-0-0-0-0-0-0-0-0-0-0-0-0-|-0-0-0-0-0-0-0-0-0-0-0-0-0-0-0-0-|
|---------------------------------|---------------------------------|
|---------------------------------|---------------------------------|

|---------------------------------|---------------------------------|
|-3-3-3-3-3-3-3-3-5-5-5-5-5-5-5-5-|-6-6-6-6-6-6-6-6-6-6-6-6-6-------|
|-2-2-2-2-2-2-2-2-3-3-3-3-3-3-3-3-|-3-3-3-3-3-3-3-3-3-3-3-3-3-------|
|-0-0-0-0-0-0-0-0-0-0-0-0-0-0-0-0-|-0-0-0-0-0-0-0-0-0-0-0-0-0-------|
|---------------------------------|---------------------------4-4-0-|
|---------------------------------|---------------------------4-4-0-|

|-------------------------------------------------------------------|
|-------------------------------------------------------------------|
|-------------------------------------------------------------------|
|-------------------------------------------------------------------|
|-3-4-5-----------3-4-5-----------3-4-5-----------------------------|
|-------0-3-4-5-0-------0-3-4-5-0-------0-3-4-5-0-(repeat lots)-----|

|-----------------|-----------------|-----------------|
|-----------------|-----------------|-----------------|
|-----------------|-----------------|-----------------|
|-0-3-4-5---------|---3-4-5---------|---3-4-5---------|
|-----------3-4-5-|-5---------3-4-5-|-5---------3-4-5-|
|---------5-------|---------5-------|---------5-------|

|-----------------|-----------------|-----------------|
|-----------------|-----------------|-----------------|
|-----------------|-----------------|-----------------|
|---3-4-5---------|-----------------|-----------------|
|-5---------3-4-5-|-----------3-4-5-|-----------3-4-5-|
|---------5-------|-0-3-4-5-0-------|-0-3-4-5-0-------|

|-----------------|-----------------|
|-----------------|-----------------|
|-----------------|-----------------|
|-----------------|-----------------|
|-----------3-4-5-|-----------3-4-5-|
|-0-3-4-5-0-------|-0-3-4-5-0-------|

|-------------|-------------|-----------------|
|-----------6-|-----------6-|-----------------|
|-----------5-|-----------5-|-----------------|
|-------------|-------------|-----------------|
|-0-3-5b6p0---|-0-3-5b6p0---|-3-0-3-0-3-0-3-0-|
|-0-3-5b6p0---|-0-3-5b6p0---|-3-0-3-0-3-0-3-0-|

|---------------------------------|---------------------------------|
|-3-3-3-3-3-3-3-3-5-5-5-5-5-5-5-5-|-6-6-6-6-6-6-6-6-6-6-6-6-6-6-6-6-|
|-2-2-2-2-2-2-2-2-3-3-3-3-3-3-3-3-|-3-3-3-3-3-3-3-3-3-3-3-3-3-3-3-3-|
|-0-0-0-0-0-0-0-0-0-0-0-0-0-0-0-0-|-0-0-0-0-0-0-0-0-0-0-0-0-0-0-0-0-|
|---------------------------------|---------------------------------|
|---------------------------------|---------------------------------|

|---------------------------------|---------------------------------|
|-3-3-3-3-3-3-3-3-5-5-5-5-5-5-5-5-|-6-6-6-6-6-6-6-6-6---------------|
|-2-2-2-2-2-2-2-2-3-3-3-3-3-3-3-3-|-3-3-3-3-3-3-3-3-3---------------|
|-0-0-0-0-0-0-0-0-0-0-0-0-0-0-0-0-|-0-0-0-0-0-0-0-0-0---------------|
|---------------------------------|---------------------------4-4-0-|
|---------------------------------|---------------------------4-4-0-|

|------------------------------|--------------------------|---|
|------------------------------|--------------------------|---|
|------------------------------|--------------------------|-6-|
|------------------------------|--------------------------|-5-|
|-3-4-5------------------------|--------------------------|---|
|-------0-3-4-5-0-(repeat lots)|--------------------------|---|////////////////// ¿Te Animas? Sube una canción a este sitio. //////////////////

ACORDES PARA GUITARRA

PIANO UKELELE


COMENTARIOS

Aún no hay comentarios,

¡escribe el primero!

Escribe una pregunta, duda o comentario sobre esta canción, te responderemos a la brevedad.

Las más tocadas de Muse

Toca una Canción al Azar de Muse