Amor de lokos
Plastiko
Acordes

Subida por Vitelio



Otras Versiones
Ver. 2

ENTRENA TU OÍDO MUSICAL CON ESTE JUEGO. ¿QUÉ ACORDE ES?. CLIC AQUÍ PARA JUGAR

Cambiar Cifrado
Americano Latino

Cambiar Tonalidad
-1 +1

Partir Pantalla Imprimir FAQ

+A
-A
LETRA CON ACORDES
Esta es mi primer tablatura que hago espero y les guste
Cualquier duda pueden escribirme a mi correo: [email protected]
¡¡¡IRENE TE QUIERO MUCHO!!!!

Intro

e------------------------------
b--9-9-9-9-9-9-9-7-7-----------
g--------------------9-9-7-7--- X2
D------------------------------
A------------------------------
E------------------------------

e---------------------------------------
b--10-10-10-10-10-10-10-9-9-------------
g---------------------------11-11-9-9---
D---------------------------------------
A---------------------------------------
E---------------------------------------

e---------------------------------------------
b--12-12-12-12-12-12-12-13-13-13-13-13-13-13--
g---------------------------------------------
D---------------------------------------------
A---------------------------------------------
E---------------------------------------------

Se repite el intro 2 veces



C#m G#m A B Cm
Cuantas veces caí, tus palabras solo lo envenenan

C#m G#m A B Cm
Tantas cosas creí, me hiciste ver el sol y las estrellas

C#m G#m A B Cm
En un mundo de ilusión imaginamos q el amor es suficiente.

C#m G#m A B Cm
Nada, nada q decir solo déjame salir de este infierno



E G#m A B Cm
Solo, solo otra vez caminando sin temer lo que me espera

E G#m A B Cm
el pasado ya se fue, fue dolor quemándome.


e----------------------------------------------------------------
b----------------------------------------------------------------
g----------------------------------------------------------------
D----------------------------------------------------------------
A--4-4-4-4---6-6-6---11-11-11-11-11---7-7-7-7-------------------- x6
E----------------------------------------------------------------


C#m G#m A B Cm
Cuantas veces caí en tus labios, entre tus piernas,

C#m G#m A B Cm
la mentira, la pasión me entregastes sin razón amor de locos,

C#m G#m A B Cm
si el destino nos unió hoy también nos separo.

C#m G#m A B Cm
Nada, nada q decir solo déjame salir de este infierno



E G#m A B Cm
Solo, solo otra vez caminando sin temer lo que me espera

E G#m A B Cm
el pasado ya se fue, fue dolor quemándome.


E G#m A B Cm
Solo, solo otra vez caminando sin temer lo que me espera

E G#m A B Cm
el pasado ya se fue, fue dolor quemándome.




C#m G#m A B Cm
Y es que todo es tan difícil me cuesta tanto respirar,

C#m G#m A B Cm
voy mirando hacia enfrente sin voltear


E G#m A B Cm
Solo, solo otra vez caminando sin temer lo que me espera

E G#m A B Cm
el pasado ya se fue, fue dolor quemándome.


e----------------------------------------------------------------
b----------------------------------------------------------------
g----------------------------------------------------------------
D----------------------------------------------------------------
A--4-4-4-4---6-6-6---11-11-11-11-11---7-7-7-7--------------------
E----------------------------------------------------------------

Practíquenla no esta muy difícil
Saludos


ACORDES PARA GUITARRA

PIANO UKELELE
C#m
G#m
A
B
Cm
E


COMENTARIOS

Aún no hay comentarios,

¡escribe el primero!

Para hacer una pregunta o dejar un comentario sobre esta canción, debes estar LOGUEADO

Las canciones más tocadas de Plastiko

Toca una Canción al Azar de Plastiko
C#m
G#m
A
B
Cm
E

Nuestro servidor se demoró 0.06 segundos en generar esta página. Eso fue realmente muy rápido!