Vimos Krecer (Acordes)

Plastiko

Subida por Toby

Compartir


Imprimir FAQ
+A
-A

Texto

Desplazamiento

Transportador

Color de Fondo

Archivos

-A
+A
hola huevas aki esta el intro de esta super cancion
 ATENTAMENTE EL "JONA"
     Am                                          Dm
------------5-5--/------------------------------/---
--s5---5----5-5--/------------------------------/---
-----7-----------/--------------------5-5-5-5-5-/-7-
----------7------/-----------5-5-6-7------------/---
-----------------/--7-7-7-7---------------------/---
-----------------/------------------------------/---
                     (PARTA 1)
-----------/-----------------------------/----------
-----------/-6-6-6-6---------------------/----------
---7--5--7-/-7-7-7-7---7--5----7--5------/----------
-----------/-----------------7--------7--/----------
-----------/-----------------------------/----------
-----------/-----------------------------/----------

 G                                      F
------------------------------7-7-7-s-/--5--------
--8-8-x-x---8-8-x-x---5-5-x---8-8-8-s-/--6--------
--9-9-x-x---7-7-x-x---5-5-x-----------/-----------
--------------------------------------/-----------
--------------------------------------/-----------
--------------------------------------/-----------

          (fin parte 1)
--------8---------8------8----------/
--10----------10---------10---------/
--10----------10---------10---------/
------------------------------------/
------------------------------------/
------------------------------------/

se toca lo mismo por dos veces solo hay una variacion
dode te puse "parte 1 y fin parte 1"
y bueno pues estas son las variaciones k utilizo como
"parte 2 y fin parte 2"

                (parte 2)Dm
-------------------------------------/
-------------------------------------/
--5b7-5b7-5b7-5b7--7--5-----7--5-----/
-------------------------7--------7--/
-------------------------------------/
-------------------------------------/

                 (fin parte 2)F
-------5------5----------------------------/
---s6-----s6--------s6--s6--s5-------5-----/
---------------------------------7---5-(5)-/
-------------------------------------------/
-------------------------------------------/
-------------------------------------------/

eso estodo de la intro espero les guste


Video Clip de Vimos Krecer


ACORDES PARA GUITARRA

PIANO UKELELE
Am
Dm
G
F


TOP 20: Las más tocadas de Plastiko


Toca una Canción al Azar de Plastiko

Acordes

Cerrar
Am
Dm
G
F

23.07

x

76