Despertar
Play attenchon
Acordes

Subida por rayegarcia


Más Versiones
Ver. 2 Ver. 3

Cambiar Cifrado
Americano Latino

Cambiar Tonalidad
-1 +1

Partir Pantalla Imprimir FAQ

+A
-A


Ver solo la LETRA
Intro (komienza el platillo) (00:02 seg.)


G/-------------------------------------------------------------/
D/-------------------------------------------------------------/
A/-7--5--3--2--7-7--5-5--3-3--2-2--7******---------------------/
E/-------------------------------------------------------------/

Punteo (00:17 seg.) (2 veces)

G/----------------------/
D/-2-2-2-2-2------------/
A/--------------3-2-----/
E/-----------3-2--------/

Punteo (kon todo)(00:20 seg.) (4 veces)

G/-------------------/
D/-2-2-2-2-2---------/
A/--------------3-2--/
E/-----------3-2-----/

Verso 1 (00:26 seg.)

G/-------------------------------------------------------------------------------------------/
D/-----------------------2-2-2-2-2--------2-2-2-2-2--------2-2-2-2-2--------2-2-2-2-2--------/
A/-5-5-5-5-5--3-3-3-3-3---------------3-2--------------3-2--------------3-2---------------3-2/
E/---------------------------------3-2--------------3-2--------------3-2--------------3-2----/

Verso 2 (00:35 seg.)

G/--------------------------------------------------------------------------------------------------------/
D/-----------------------2-2-2-2-2-2-2-2-2-2--------------------------------------------------------------/
A/-5-5-5-5-5--3-3-3-3-3------------------------------------------3-3-3-3-3-3-3-3-3-3--5-5-5-5-5-5-5-5-5-5-/
E/-------------------------------------------3-3-3-3-3-3-3-3-3-3------------------------------------------/

(00:43 seg.)

G/----------------------------------------------------------------------------------/
D/-2-2-2-2-2-2-2-2-2-2--------------------------------------------------------------/
A/-----------------------------------------3-3-3-3-3-3-3-3-3-3--5-5-5-5-5-5-5-5-5-5-/
E/---------------------3-3-3-3-3-3-3-3-3-3------------------------------------------/

(00:49 seg.)

G/-----------------------------------------------------------------/
D/-2*****--------------------------2******-------------------------/
A/---------------3******--5******-----------------3******-5******--/
E/-------3******--------------------------3******------------------/

(01:00 min.) (2 veces)

G/----------------------------------------------------------------------------------/
D/-2-2-2-2-2-2-2-2-2-2--------------------------------------------------------------/
A/-----------------------------------------3-3-3-3-3-3-3-3-3-3--5-5-5-5-5-5-5-5-5-5-/
E/---------------------3-3-3-3-3-3-3-3-3-3------------------------------------------/

(01:12 min.)

G/----------------------------------------------------------------------------------/
D/-2******------------------------2******-------------------------------------------/
A/---------------3******--5******----------------3******--5******-------------------/
E/--------3******------------------------3******------------------------------------/

(01:23 min.) (2 veces)

G/----------------------------------------------------------------------------------/
D/-2-2-2-2-2-2-2-2-2----------------------------------------------------------------/
A/---------------------------------------3-3-3-3-3-3-3-3-3-3--5-5-5-5-5-5-5-5-5-5---/
E/-------------------3-3-3-3-3-3-3-3-3-3--------------------------------------------/

(01:35 min.) (4 veces)

G/--------------------------------------------/
D/------------------------------------9-7-5-4-/
A/-3-3-3-3-3--2-2-2-2-------------5-5---------/
E/---------------------3-3-3-3-3--------------/

(01:56) (4 veces)

G/-------------/
D/-----9-7-5-4-/
A/-5-5---------/
E/-------------/

(02:02 min.)

G/--------------------------------/
D/-2-----------2-2----------------/
A/----5--3--2------5-5--3-3--2-2--/
E/--------------------------------/

Punteo (02:15 min.) (6 veces)

Acaba en:

G/--------/
D/--------/
A/-7*****-/
E/--------/


ACORDES PARA GUITARRA

PIANO UKELELE


COMENTARIOS

Aún no hay comentarios,

¡escribe el primero!

Escribe una pregunta, duda o comentario sobre esta canción, te responderemos a la brevedad.

Las más tocadas de Play attenchon

Toca una Canción al Azar de Play attenchon