Preguntas
Play attenchon
Acordes

Subida por Nico1974


Más Versiones
Ver. 2

Cambiar Cifrado
Americano Latino

Cambiar Tonalidad
-1 +1

Partir Pantalla Imprimir FAQ

+A
-A


Ver solo la LETRA
Versos: (el intro es el punteo de guitarra) (00:33 seg.) (5 veces)


G/------------------------------------/
D/------------------------------------/
A/-----------3-3-3-3-3-3--------------/
E/-1-1-1-1-1--------------5-3-5-6-5-3-/

Puente 1: (00:47 seg.)

G/------------------------------------------------/
D/------------------------------------------3-2-0-/
A/-0-0-0-0-0-0-0-0-0-0--1-1-1-1-1-1-1-1-1-1-------/
E/------------------------------------------------/

Puente 2: (00:59 seg.) (2 veces)

G/------------------------------------------------------------------------------------/
D/------------------------------------------------------------------------------------/
A/-------------------------------------------3-3-3-3-3-3-3-3-3-3----------------------/
E/-5-5-5-5-5-5-5-5-5-5--1-1-1-1-1-1-1-1-1-1-----------------------3-3-3-3-3-3-3-3-3-3-/

Puente 3: (01:10 min.) (1 vez)

G/-------------------------/
D/-------------------------/
A/-------3*----------3*-5*-/
E/-5*-1*---3*--5*-1*-------/

Puente 4: (01:40 min.)

G/---------------------/
D/---------------------/
A/-----------5-5-5-5-5-/
E/-5-5-5-5-5-----------/

Versos: (02:07 min.) (5 veces)
Puente 1: (02:21 min.) (4 veces)
Puente 2: (02:32 min.) (4 veces)

Outro: (02:57 min.) (1 vez)

G/--------------------------/
D/--------------------------/
A/--------------------------/
E/-5-3-5-6-5-3--5-3-5-6-5-3-/


ACORDES PARA GUITARRA

PIANO UKELELE


COMENTARIOS

Aún no hay comentarios,

¡escribe el primero!

Escribe una pregunta, duda o comentario sobre esta canción, te responderemos a la brevedad.

Las más tocadas de Play attenchon

Toca una Canción al Azar de Play attenchon