En el mas alla
Play attenchon
Acordes

Subida por Steve10


Más Versiones
Ver. 2

Cambiar Cifrado
Americano Latino

Cambiar Tonalidad
-1 +1

Partir Pantalla Imprimir FAQ

+A
-A


Ver solo la LETRA
Intro: (00:02 seg.)


G/--------------------------------------------------------------------/
D/--------------------------------------------------------------------/
A/-4-4-4-4-4-4-4-4----------------------------------------------------/
E/------------------5-5-5-5-5-5-5-5--2-2-2-2-2-2-2-2--4-4-4-4-4-4-4-4-/

Verso 1: (00:09 seg.) (2 veces)

G/----------------------------------2h4-4-2----------------------------------------/
D/------------------------------------------4-2------------------------------------/
A/-4-4-4-4-4-4-4-4-----------------------------------------------------------------/
E/------------------5-5-5-5-5-5-5-5---------------2-2-2-2-2-2-2-2--4-4-4-4-4-4-4-4-/

Verso 2: (00:23 seg.)

G/--------------------------------------------------------------------/
D/--------------------------------------------------------------------/
A/-4-4-4-4-4-4-4-4----------------------------------------------------/
E/------------------5-5-5-5-5-5-5-5--2-2-2-2-2-2-2-2--4-4-4-4-4-4-4-4-/

Puente 1: (00:30 seg.) (2 veces)

G/-------------------------------------------------------------------------------------/
D/-------------------------------------------------------------------------------------/
A/-0-0-0-0-0--3-3-3-3-3-----3-3-3--0-0-0-0-0-0--0-0-0-0-0--3*-3-----3-3-3--0-0-0-0-0-0-/
E/----------------------1-1-------------------------------------1-1--------------------/

Puente 2: (00:44 seg.) (2 veces)

G/--------------------------------------------------------7---9--/
D/---------------------------------------------------------------/
A/---------4-4-4-4--5-5-5-5--7-7-7-7--------------------5---7----/
E/-5-5-5-5----------------------------5-5-5-5--2-2-2-2-----------/

Puente 1 (2 veces) (00:59 seg.)
Puente 2 (2 veces) (01:14 min.)
Puente 1 (2 veces) (01:28 min.)

Termina en:

G/------------/
D/------------/
A/-0-0-0-0--3-/
E/------------/


ACORDES PARA GUITARRA

PIANO UKELELE


COMENTARIOS

Aún no hay comentarios,

¡escribe el primero!

Escribe una pregunta, duda o comentario sobre esta canción, te responderemos a la brevedad.

Las más tocadas de Play attenchon

Toca una Canción al Azar de Play attenchon