Pensando en ti
Play attenchon
Acordes

Subida por ORIEL


Más Versiones
Ver. 2 Ver. 3

Cambiar Cifrado
Americano Latino

Cambiar Tonalidad
-1 +1

Partir Pantalla Imprimir FAQ

+A
-A


Ver solo la LETRA
Intro: (komienza solo la guitarra) (00:10 seg.)


G/---------------------------------------------------------------------------------------------------/
D/---------------------------------------------------------------------------11-11-11-11-11-11-11-11-/
A/------------------------6-6-6-6-6-6-6-6-6-6-6--7-7-7-7-7-7-7-7-7-7-7--9-9--------------------------/
E/-7-7-7-7-7-7-7-7-7-7-7-----------------------------------------------------------------------------/

Versos: (00:18 seg.) (3 veces)

G/--------------------------------------------------------------------------------------------/
D/--------------------------------------------------------------------------------------------/
A/------------------------6-6-6-6-6-6-6-6-6-6-6--7-7-7-7-7-7-7-7-7-7-7--9-9-9-9-9-9-9-9-9-9-9-/
E/-7-7-7-7-7-7-7-7-7-7-7----------------------------------------------------------------------/

Puente 1: (00:42 seg.)

G/-------------------------------------------------------------------------------/
D/-------------------------------------------------------11-11-11-11-11-11-11-11-/
A/-----------------6******-6******--7******7******--9-9--------------------------/
E/-7******-7******---------------------------------------------------------------/

Puente 2 (00:49 seg.) (4 veces)

G/------------------------------------------------------------------------------------/
D/----------------------2-2-2-2-2-2-2-2-2-2-------------------------------------------/
A/-4-4-4-4-4-4-4-4-4-4-----------------------2-2-2-2-2-2-2-2-2-2--0-0-0-0-0-0-0-0-0-0-/
E/------------------------------------------------------------------------------------/

Intro (01:20 min.) (1 vez)
Versos (01:28 min.) (3 veces)
Puente 1 (01:52 min.) (1 vez)
Puente 2 (02:00 min.) (4 veces)
Solo 1 (02:31 min.) (1 vez) (El solo 1 es el puente 2)
Puente 2 (02:39 min.) (4 veces)

Solo 2 (03:10 min.) (1 vez):

G/--------------------------------------------------------------------------------------------/
D/--------------------------------------------------------------------------------------------/
A/------------------------6-6-6-6-6-6-6-6-6-6-6--7-7-7-7-7-7-7-7-7-7-7--9-9-9-9-9-9-9-9-9-9-9-/
E/-7-7-7-7-7-7-7-7-7-7-7----------------------------------------------------------------------/

Puente 3 (03:28 min.) (1 vez):

G/-----------------8-8-8-8-8----9-9-9-9-9---11-11-11-11-11---------------------8-8-8-8-8---9-9-9-9-9---11**********-/
D/---9-9-9-9-9-----------------------------------------------------9-9-9-9-9----------------------------------------/
A/--------------6-------------7-----------9----------------------------------6-----------7-----------9--------------/
E/-7---------------------------------------------------------0h7-7--------------------------------------------------/

Outro: (03:34 min.) (1 vez):

G/-----------------------------------------------------------------------------------------------------------------------------------------------------------------------------/
D/-----------------------------------------------------------------------------------------------------------------------------------------------------------------------------/
A/-----------------------6-6-6-6-6-6-6-6-6-6-6--7-7-7-7-7-7-7-7-7-7-7--9-9-9-9-9-9-9-9-9-9-9-------------------------6-6-6-6-6-6-6-6-6-6-6--7-7-7-7-7-7-7-7-7-7-7--9-7-6-7-6---/
E/-7-7-7-7-7-7-7-7-7-7-7----------------------------------------------------------------------7-7-7-7-7-7-7-7-7-7-7----------------------------------------------------------7-/


ACORDES PARA GUITARRA

PIANO UKELELE


COMENTARIOS

Aún no hay comentarios,

¡escribe el primero!

Escribe una pregunta, duda o comentario sobre esta canción, te responderemos a la brevedad.

Las más tocadas de Play attenchon

Toca una Canción al Azar de Play attenchon