Bem Maior
Roupa Nova
Acordes

Subida por lilidiaz
Álbum: Acústico 2 ( 2006)


Más Versiones
Ver. 2 Ver. 3 Ver. 4 Ver. 5 Ver. 6

Cambiar Cifrado
Americano Latino

Cambiar Tonalidad
-1 +1

Partir Pantalla Imprimir FAQ

+A
-A
Mudar para Português

Ver solo la LETRA
[Intro]  F#  G#m7(11)  F#/A#  B9
F# G#m7(11) F#/A# B9
F# G#m7(11) F#/A# B9
A E/G# F# B/F# C#4/F#

F# G#m7(11) F#/A# B9
Bem maior do que os mares mais profundos
F# G#m7(11) F#/A# B9
Bem maior do que os campos que eu vi
F# G#m7(11) F#/A# B9
Bem maior que o teatro das estrelas
A E/G# F# B/F# C#4/F#
É meu amor por ti
F# G#m7(11) F#/A# B9
Como a força infinita das rochas
F# G#m7(11) F#/A# B9
Tem mais luz que o sol põe no rubi
F# G#m7(11) F#/A# B9
Muito mais do que o verde das matas
A E/G# F#
É meu amor por ti
E/B B D/A A
As........sim como no inverno
E/B B D/A A
E o sol quente do verão
E/B B D/A A
Eu vou ser a primavera
C#7/4 C#7 C#7/4 C#7
Do teu coração
F# G#m7(11) F#/A# B9
Foi assim que escrevemos nossa história
F# G#m7(11) F#/A# B9
É o livro mais lindo que eu li
F# G#m7(11) F#/A# B9
Uma flor azul que me traga na memória
A E/G# F#
O meu amor por ti
A E/G# F#
O meu amor por ti

Solo: E/B B D/A A

E B A
E|-9-11-12-14-11--------------9-10-12-9------------------|
B|---------------12--------12-----------10---------------|
G|------------------11---------------------9-------------|
D|-------------------------------------------------------|

E B A C#
E|-9-11-12-14-11--------------9-10-9----9-12-------9-----|
B|---------------12--------12--------12------10-12-------|
G|------------------11-----------------------------------|
D|-------------------------------------------------------|

F#
E|-9-11-9-------------|
B|--------12-11-9-----|
G|----------------11--|
D|--------------------|

[Final]

E|-------------------|
B|-------------------|
G|-6-4-2-4-1--1------|
D|---------------4---|

ACORDES PARA GUITARRA

PIANO UKELELE
F#
G#m11
F#/A#
B9
A
E/G#
B/F#
E/B
B
D/A
C#11
C#7
E
C#


COMENTARIOS

Aún no hay comentarios,

¡escribe el primero!

Escribe una pregunta, duda o comentario sobre esta canción, te responderemos a la brevedad.

Las más tocadas de Roupa Nova

Toca una Canción al Azar de Roupa Nova
F#
G#m11
F#/A#
B9
A
E/G#
B/F#
E/B
B
D/A
C#11
C#7
E
C#