Seguindo No Trem Azul
Roupa Nova
Acordes

Subida por Taty
Álbum: Roupa Nova ( 1985)


Más Versiones
Ver. 2 Ver. 3 Ver. 4 Ver. 5 Ver. 6

Cambiar Cifrado
Americano Latino

Cambiar Tonalidad
-1 +1

Partir Pantalla Imprimir FAQ

+A
-A
Mudar para Português
C                 Em7
Confessar, sem medo de mentir
Dm7 F G7
Que em você, encontrei inspiração
C
Para escrever
Em7
Você é pessoa que nem eu
Dm7
Que sente amor
F G7
Mas não sabe muito bem
C
Como vai dizer

F C
Te dou meu coração
G C
Queria dar o mundo
F C9 C
Luar do meu sertão
Dm7 C9 G7 C
Seguindo no trem azul

C Em7
Toda vez que for assoviar
Dm7
A cor do trem
F
É da cor que alguém
G7 C
Fizer e você sonhar
Em7
Não faz mal não ser compositor
Dm7
Se o amor valeu
F G7
Eu empresto um verso meu
C
Pra você dizer

F C
Só me dará prazer
G C
Se viajar contigo
F C9 C
Até nascer o sol
Dm7 C9 G7 C
Seguindo no trem azul
F C
Te dou meu coração
F G C
Queria dar o mundo
F C9 C
Luar do meu sertão
Dm7 C9 G7 C
Seguindo no trem azul


[Solo] Db Fm7 Ebm7 Gb Ab Db

E|-13--11--9-------------------------------11--------------|
B|----------11/13-11--9--11/13--9/11-11-----------------11-|
G|---------------------------------------11-----11--13-----|
D|---------------------------------------------------------|
A|---------------------------------------------------------|
E|---------------------------------------------------------|

E|-------------------------14--13--11-9--11-9--------------|
B|---------14--13--11--------------------------------------|
G|--13-11--------------13----------------------------------|
D|---------------------------------------------------------|
A|---------------------------------------------------------|
E|---------------------------------------------------------|

Db Fm7
Vai lembrar de um cara como eu
Ebm7 Gb Ab
Que sente amor, mais não sabe muito bem
Db
Como vai dizer

Gb Db
Só me dará prazer
Ab Db
Se via...jar conti...go
Gb Db9 Db
Até nascer o sol
Ebm7 Db9 Ab7 Db
Seguindo no trem a...zul

Gb Db
Te dou meu coração
Ab Db
Queria dar o mun...do
Gb Db9 Db
Luar do meu sertão
Ab Db
Seguindo no trem azul
Ab Db
Seguindo no trem azul

Gb Gbm Db

ACORDES PARA GUITARRA

PIANO UKELELE
C
Em7
Dm7
F
G7
G
C9
Db
Fm7
Ebm7
Gb
Ab
Db9
Ab7
Gbm


COMENTARIOS

Aún no hay comentarios,

¡escribe el primero!

Escribe una pregunta, duda o comentario sobre esta canción, te responderemos a la brevedad.

Las más tocadas de Roupa Nova

Toca una Canción al Azar de Roupa Nova
C
Em7
Dm7
F
G7
G
C9
Db
Fm7
Ebm7
Gb
Ab
Db9
Ab7
Gbm