De Volta Pro Futuro
Roupa Nova
Acordes

Subida por netosong
Álbum: Acústico 2 ( 2006)


Más Versiones
Ver. 2 Ver. 3 Ver. 4 Ver. 5 Ver. 6

Cambiar Cifrado
Americano Latino

Cambiar Tonalidad
-1 +1

Partir Pantalla Imprimir FAQ

+A
-A
Mudar para Português

Ver solo la LETRA
Intro: C F G F C E
Solo:
C F
E|--------------10--8--7--8--10--|
B|--5--5--6--8-------------------|
G|-------------------------------|
D|-------------------------------|
A|-------------------------------|
E|-------------------------------|

G F
E|--12--10h12p10--8--7--8--8--10--|
B|--------------------------------|
G|--------------------------------|
D|--------------------------------|
A|--------------------------------|
E|--------------------------------|

C E
E|--12--8--7--10--12--16~~~~------|
B|--------------------------------|
G|--------------------------------|
D|--------------------------------|
A|--------------------------------|
E|--------------------------------|

Am Am7/G
Sou o mesmo que te amou
F7+ Am A4 Am A4
Não me diga que esqueceu
Am Am7/G
Sei que tudo já mudou
F7+ Am A4 Am A4
Muita coisa se perdeu
C G Am (baixos) E F E D C
Houve um tempo que um beijo nos calava a voz
E|-0-1-0-----------|
B|--------3-1------|
G|-------------1---|
D|-----------------|
A|-----------------|
E|-----------------|

G# C
E o silêncio é eu te amo
e|---------------------|
B|--5h6p5---5h6p5------|
G|--------5-------5-5--|
D|---------------------|
A|---------------------|
E|---------------------|

G Am
Vem de volta pro futuro que ainda há pra nós
Am/G F G# G
Ah o Amor só dói pra quem não volta atrás

C G F G
(Amor é tudo que eu tenho pra dar
C Am G
depois é só pedir mais) (2x)

Am Am7/G
Sou o mesmo que te quis
F7+ Am A4 Am A4
Lembra da primeira vez
Am Am7/G
Qual dos dois foi mais feliz
F7+ Am A4 Am A4
Quantos beijos eu te dei

C G Am
Na saudade eu te conheço como alguém real
E|-0-1-0-----------|
B|--------3-1------|
G|-------------1---|
D|-----------------|
A|-----------------|
E|-----------------|

G# C
Dando volta nos meus sonhos
G Am
No futuro sentimento que inventou nós dois
G F G# G
Ah sempre vem depois pra quem quer recomeçar

C G F G
(Amor é tudo que eu tenho pra dar
C Am G
depois é só pedir mais) (2x)
Solo:
C F
E|--------------10--8--7--8--10--|
B|--5--5--6--8-------------------|
G|-------------------------------|
D|-------------------------------|
A|-------------------------------|
E|-------------------------------|

G F
E|--12--10h12p10--8--7--8--7--8--|
B|-------------------------------|
G|-------------------------------|
D|-------------------------------|
A|-------------------------------|
E|-------------------------------|

G F Am C
E|--10--7--8--10--12--13--15-----|
B|-------------------------------|
G|-------------------------------|
D|-------------------------------|
A|-------------------------------|
E|-------------------------------|

C G Am
Houve um tempo que um beijo nos calava a voz
G# C
E o silêncio é eu te amo
G Am
Vem de volta pro futuro que ainda há pra nós
G F G# G
Ah o Amor só dói pra quem não volta atrás
C G F G
(Amor é tudo que eu tenho pra dar
C Am G
depois é só pedir mais) (2x)
D A G A
(Amor é tudo que eu tenho pra dar
D Bm A
depois é só pedir mais) (4x)

ACORDES PARA GUITARRA

PIANO UKELELE
C
F
G
E
Am
Am7/G
Fmaj7
A4
D
G#
Am/G
A
Bm


COMENTARIOS

Aún no hay comentarios,

¡escribe el primero!

Escribe una pregunta, duda o comentario sobre esta canción, te responderemos a la brevedad.

Las más tocadas de Roupa Nova

Toca una Canción al Azar de Roupa Nova
C
F
G
E
Am
Am7/G
Fmaj7
A4
D
G#
Am/G
A
Bm