Chuva de Prata
Roupa Nova
Acordes

Subida por Belu


Más Versiones
Ver. 2 Ver. 3 Ver. 4 Ver. 5 Ver. 6

Cambiar Cifrado
Americano Latino

Cambiar Tonalidad
-1 +1

Partir Pantalla Imprimir FAQ

+A
-A
Mudar para Português
A         Am          G#m         C#m
Se tem luar no céu retira o véu
C B7 E B7
E faz chover sobre o nosso amor
E G#m Bm C#7
Chuva de prata que cai sem parar, quase me mata de tanto esperar
F#m C B7 E B7
Um beijo molhado de luz, sela o nosso amor
E G#m Bm C#7
Basta um pouquinho de mel pra adoçar, deixa cair o seu véu sobre nós
F#m C B7 E B7
Oh lua bonita no céu, molha o nosso amor
E B/D# C#m C#m7/B
Toda vez que o amor disser vem comigo
A F# B7 B7/4 B7
Vai sem medo de se arrepender
E B/D# C#m C#m7/B
Você deve acreditar no que eu digo
A Am E B7
Pode ir fundo, isso que é viver

[Solo] E G#m Bm C#7 F#m C B7 E B7

E|------------------------------------------------------------|
B|------------------------------------------------------------|
G|------------------------------------------------------------|
D|------------------------------------------------------------|
A|---1/2--2-2-2--4--4/6--2-2-2-2---0-2-2-2-2-4-4/5-4----------|
E|-------------------------------4----------------------------|

E|------------------------------------------------------------|
B|------------------------------------------------------------|
G|------------------------------------------------9/7--6/4----|
D|-------------------1-2--4-4/5----4-2-1-4-2------9/7--6/4----|
A|---0p-------0-2-4-------------------------------------------|
E|-----4p2--4-------------------------------------------------|

E G#m Bm C#7
Cola seu rosto no meu vem dançar, pinga seu nome no breu pra ficar
F#m C B7 E B7
Enquanto se esquece de mim lembra da canção
E B/D# C#m C#m7/B
Toda vez que o amor disser vem comigo
A F# B7 B7/4 B7
Vai sem medo de se arrepender
E B/D# C#m C#m7/B
Você deve acreditar no que eu digo
A Am E B7
Pode ir fundo, isso que é viver
E G#m Bm C#7
Chuva de prata que cai sem parar, quase me mata de tanto esperar
F#m C B7 E C#m G#m7 Gm7
Um beijo molhado de luz, sela nosso amor
F#m7 C B7 E C#m G#m7 Gm7
Enquanto se esquece de mim, lembra da canção
F#m7 C B7 E
Oh lua bonita no céu, molha o nosso amor

ACORDES PARA GUITARRA

PIANO UKELELE
A
Am
G#m
C#m
C
B7
E
Bm
C#7
F#m
B/D#
C#m7/B
F#
B11
G#m7
Gm7
F#m7


COMENTARIOS

Aún no hay comentarios,

¡escribe el primero!

Escribe una pregunta, duda o comentario sobre esta canción, te responderemos a la brevedad.

Las más tocadas de Roupa Nova

Toca una Canción al Azar de Roupa Nova
A
Am
G#m
C#m
C
B7
E
Bm
C#7
F#m
B/D#
C#m7/B
F#
B11
G#m7
Gm7
F#m7