Fica Comigo
Roupa Nova
Acordes

Subida por Lfrania


Más Versiones
Ver. 2 Ver. 3 Ver. 4 Ver. 5 Ver. 6

Cambiar Cifrado
Americano Latino

Cambiar Tonalidad
-1 +1

Partir Pantalla Imprimir FAQ

+A
-A
Mudar para Português

Ver solo la LETRA

Intro: C Am F G7 (2x)

e|-----0-------------0---------------3-3-1-1-0-0-----3-1-0---
B|-------3-1-1---------3-1-3-3/5-----------------3-1-------3-
G|-2-0-----------2-0-----------------------------------------

C F G7
Quando o sol invade a noite
Am F Dm
E o dia já vem
F G7
Eu percebo você cada vez mais
C
Se afastando de mim
F G7
O amor que era nosso
Am F Dm
E agora é só meu
F G7
No silêncio o olhar é de quem traz
C
Num só beijo um adeus

Am Em
Fica comigo, deixa eu provar
F G7
Que os planos, nossos sonhos vão continuar REFRÂO
Am Em
Fica comigo, deixa eu dizer
F G7
Que as cartas são marcadas pra mim e você

C F G7
Se a rotina é o motivo
Am F Dm
Que gelou seu calor
F G7
Não se esqueça que sempre te quis mais
C
E você nem ligou

Solo: Am Em F G7 (2x)

e|-3--5------------5-7-8-7-5-3-1-0-----0----5/3-5/3-5/3-5/3-12-
B|------3/5/3---5------------------3-1---3---------------------
G|------------5------------------------------------------------

e|-10--------------------------------------8-10-12-10-
B|----13-12-10-----------------------10-12------------ a Segunda parte do solo está
G|-------------12-10---------9-10-12------------------ simplificada.
D|-------------------12---12-------------------------- Se ouvirem o solo vão saber porque!
Dm Am
Se sentir que a dor de voltar atrás
G7 C Am
É menor que seu amor, não vá
Dm Am
Se sentir que pode se arrepender
G7 C
É melhor o coração mandar
REFRÂO (varias vezes)

ACORDES PARA GUITARRA

PIANO UKELELE
C
Am
F
G7
Dm
Em


COMENTARIOS

Aún no hay comentarios,

¡escribe el primero!

Escribe una pregunta, duda o comentario sobre esta canción, te responderemos a la brevedad.

Las más tocadas de Roupa Nova

Toca una Canción al Azar de Roupa Nova
C
Am
F
G7
Dm
Em