Já Nem Sei Mais
Roupa Nova
Acordes

Subida por jecccastro


Más Versiones
Ver. 2 Ver. 3 Ver. 4 Ver. 5 Ver. 6

Cambiar Cifrado
Americano Latino

Cambiar Tonalidad
-1 +1

Partir Pantalla Imprimir FAQ

+A
-A
Mudar para Português
Intro: C9  C5+(9)  C9  C5+(9)
Intro:
E|------------------------------------------------------------------|
B|-----3-------3-------3-------3-------3-------3-------3-------3----|
G|---5---5---5---5---5---5---5---5---5---5---5---5---5---5---5---5--|
D|-5-------5-------6-------6-------5-------5-------6-------6--------|
A|------------------------------------------------------------------|
E|------------------------------------------------------------------|

(riff durante a primeira estrofe, para em: De manhã buscando a minha paz...)
E|-------------------------------------------------------------------------------------------------|
B|-----3-------3-------3-------3-------3-------3-------3-------3-------3-------3-------3-------3---|
G|---5---3---5---5---5---5---5---5---5---5---5---5---5---3---5---5---5---5---5---5---5---5---5---5-|
D|-5-------5-------7-------7-------6-------6-------5-------5-------7-------7-------6-------6-------|
A|-------------------------------------------------------------------------------------------------|
E|-------------------------------------------------------------------------------------------------|

(1ª Parte)
C F/C Fm/C C
As vezes eu não entendo, o frio que o silêncio tras
F/C Fm/C
Me leva a sonhos tão vazios, já nem sei mais
Am Am/G F7M Dm7 G4
De manhã buscando a minha paz, meu desejo vai te procurar

(Refrão)
Am F C G
Eu tenho a luz das estrelas na palma da mão
Am F C G
Mas tudo e que eu mais quero, é o seu coração
Am F C G
eu posso andar no arco-íris, dar prata ao luar
F C G C
Mas no céu azul, no azul do mar, quero poder te tocar

( C9 C5+(9) C9 C5+(9) )
2ª Parte:
(riff durante a segunda estrofe, para em: amanhã quem sabe eu possa te achar...)
E|-------------------------------------------------------------------------------------------------|
B|-----3-------3-------3-------3-------3-------3-------3-------3-------3-------3-------3-------3---|
G|---5---3---5---5---5---5---5---5---5---5---5---5---5---3---5---5---5---5---5---5---5---5---5---5-|
D|-5-------5-------7-------7-------6-------6-------5-------5-------7-------7-------6-------6-------|
A|-------------------------------------------------------------------------------------------------|
E|-------------------------------------------------------------------------------------------------|

C F/C Fm/C C
Me pego olhando tão distante quanto tempo faz
F/C Fm/C
Será que vai ser como antes, ja nem sei mais
Am Am/G
Amanhã quem sabe eu possa te achar
F7M Dm7 G4
Tanta coisa eu tenho pra falar

Refrão
Am F C G
Eu tenho a luz das estrelas na palma da mão
Am F C G
Mas tudo e que eu mais quero, é o seu coração
Am F C G
Eu posso andar no arco-íris, dar prata ao luar
F C/E G4
Mas no céu azul, no azul do mar, quero poder te tocar

Solo: Cm Ab/C Bb/C Gm/C Ab/C Fm/C Cm G
Cm Ab/C Bb/C Gm/C Ab/C Fm/C Cm C

Pré-Refrão:
Am Am/G
Amanhã quem sabe eu possa te achar
F7M Dm7 G4
Tanta coisa eu tenho pra falar

Refrão 2x:
Am F C G
Eu tenho a luz das estrelas na palma da mão
Am F C G
Mas tudo e que eu mais quero, é o seu coração
Am F C G
Eu posso andar no arco-íris, dar prata ao luar
F C/E G4
Mas no céu azul, no azul do mar, quero poder te tocar

Am F C G
Eu tenho a luz das estrelas na palma da mão
Am F C G
Mas tudo e que eu mais quero, é o seu coração
Am F C G
Eu posso andar no arco-íris, dar prata ao luar
F C/E G4 Cm C5+(9) C9
Mas no céu azul, no azul do mar, quero poder te tocar

ACORDES PARA GUITARRA

PIANO UKELELE
C9
C
F/C
Fm/C
Am
Am/G
Fmaj7
Dm7
G4
F
G
C/E
Cm
Ab/C
Bb/C
Gm/C


COMENTARIOS

Aún no hay comentarios,

¡escribe el primero!

Escribe una pregunta, duda o comentario sobre esta canción, te responderemos a la brevedad.

Las más tocadas de Roupa Nova

Toca una Canción al Azar de Roupa Nova
C9
C
F/C
Fm/C
Am
Am/G
Fmaj7
Dm7
G4
F
G
C/E
Cm
Ab/C
Bb/C
Gm/C