Linda Demais
Roupa Nova
Acordes

Subida por DavidCaX
Álbum: Roupa Nova ( 1985)


Más Versiones
Ver. 2 Ver. 3 Ver. 4 Ver. 5 Ver. 6

Cambiar Cifrado
Americano Latino

Cambiar Tonalidad
-1 +1

Partir Pantalla Imprimir FAQ

+A
-A
Mudar para Português

Ver solo la LETRA
[Intro]

Am F C G F
E|----------------------------------------------13-15-15/17-15~----20b-15------------------------|
B|--15b--15b-13-15b-15b--15-13---------------13---------------------------17-------------17-18~--|
G|----------------------------------------14---------------------------------17-------17---------|
D|------------------------------15~----15---------------------------------------17-17------------|
A|-----------------------------------------------------------------------------------------------|
E|-----------------------------------------------------------------------------------------------|

C G/B Am F
Linda, só você me fascina
C F G
Te desejo muito além do prazer
C G/B Am F
Vista meu futuro em teu corpo
C F G
E me ama como eu amo você

Am G F C
Vem fazer diferente o que mais ninguém faz
G F
Faz parte de mim, me inventa outra vez
Am G F C
Vem conquistar meu mundo, dividir o que é seu
G F G
Mil beijos de amor em muitos lençóis, só eu e você

C G/B Am F
Linda, conte a mim teu segredo
C F G
Pro meu sonho diga quem é você
C G/B Am F
Livre, nunca mais tenha medo
C F G
Pois quem ama tudo pode vencer

Am G F C
Vem fazer diferente o que mais ninguém faz
G F
Faz parte de mim, me inventa outra vez
Am G F C
Vem conquistar meu mundo, dividir o que é seu
G F G
Mil beijos de amor em muitos lençóis, só eu e você

Linda...

[Solo]

E|-----------------------------------------------------------------------------------------------|
B|-----------------------------------------------------------------------------------------------|
G|-------5/7-7-5-4-----------2/4-4-2-0---------2/4-2-------4/5-4-5/7-5-7/9-7-9/10-9-10/12-10-12--|
D|-2-3-5-----------5-2---0-2-----------3-2/3-2-------3/5-3---------------------------------------|
A|---------------------3-------------------------------------------------------------------------|
E|-----------------------------------------------------------------------------------------------|

E|-------8/10-10-10-8-7----------------5/7-7-5-7-5-----------------------------------------------|
B|-5-6-8----------------10-8-6-5-----5-------------8-6-5-----------------------------------------|
G|-------------------------------5-6---------------------7---------------------------------------|
D|-----------------------------------------------------------------------------------------------|
A|-----------------------------------------------------------------------------------------------|
E|-----------------------------------------------------------------------------------------------|

E|-------5/7-5-------7/8-7-8/10-8-10/12-10-12/13-12-13/15----17----------------------------------|
B|-5/6-5-------6/8-6--------------------------------------15-------------------------------------|
G|-----------------------------------------------------------------------------------------------|
D|-----------------------------------------------------------------------------------------------|
A|-----------------------------------------------------------------------------------------------|
E|-----------------------------------------------------------------------------------------------|

Am Em F C
Vem fazer diferente o que mais ninguém faz
G F
Faz parte de mim, me inventa outra vez
Am Em F C
Vem conquistar meu mundo, dividir o que é seu
G F G
Mil beijos de amor em muitos lençóis, só eu e você

C G/B Am F
Linda, só você me fascina
C F G
Te desejo muito além do prazer
C G/B Am F
Vista meu futuro em teu corpo
C F G
E me ama como eu amo você
F G C
Você

ACORDES PARA GUITARRA

PIANO UKELELE
Am
F
C
G
G/B
Em


COMENTARIOS

Aún no hay comentarios,

¡escribe el primero!

Escribe una pregunta, duda o comentario sobre esta canción, te responderemos a la brevedad.

Las más tocadas de Roupa Nova

Toca una Canción al Azar de Roupa Nova
Am
F
C
G
G/B
Em