Sapato Velho
Roupa Nova
Acordes

Subida por Xiomy
Álbum: Roupa Nova ( 1981)


Más Versiones
Ver. 2 Ver. 3 Ver. 4 Ver. 5 Ver. 6

Cambiar Cifrado
Americano Latino

Cambiar Tonalidad
-1 +1

Partir Pantalla Imprimir FAQ

+A
-A
Mudar para Português

Ver solo la LETRA
[Intro]  A9  G  D  E9
A9 G D A9 D E
A9 G D E9
A9 G D A9 D E
E

[Solo]

E|---------------10-9h10p9--------------------------|
B|-----10-10/12-----------10-10/12------------------|
G|-9/11---------------------------------------------|
D|--------------------------------------------------|
A|--------------------------------------------------|
E|--------------------------------------------------|

E|-----------------10-9-10-9--9-10-12-10-9----------|
B|-------10-10/12-------------------------12-10-----|
G|-7/9-11--------------------------------------11---|
D|--------------------------------------------------|
A|--------------------------------------------------|
E|--------------------------------------------------|

E|---------------10-9h10p9--------------------------|
B|-----10-10/12-----------10-10/12------------------|
G|-9/11---------------------------------------------|
D|--------------------------------------------------|
A|--------------------------------------------------|
E|--------------------------------------------------|

E|-------------------10-9-10-9----10-9-10-10/12-----|
B|---------10-10/12-------------10------------------|
G|-9-9-9/11-----------------------------------------|
D|--------------------------------------------------|
A|--------------------------------------------------|
E|--------------------------------------------------|

E|--------------------------------------------------|
B|-----------------7--------------------------------|
G|-----------------7--------------------------------|
D|-2h4p2-----------7--------------------------------|
A|------4-5-2-4----7--------------------------------|
E|--------------0-----------------------------------|


A9 D/A E/A
Você lembra, lembra
D7M C#m7 Bm7 A G#º F#m7
Na__que____le tempo eu ti___nha
F#m7 B/A G#m7 C#m7
Estrelas nos olhos, um jeito de herói
F#m7 D7M C#m7 Bm7 A
Era mais forte e ve___loz
G#º F#m7 F7M(11+) A9
Que qualquer mocinho de cowboy

D/A E/A D/A

E|------------------12-10-9h10p9--9------|
B|----2h3p2---3/5---------------12-10----|
G|-2-4-----4-2---------------------------|
D|---------------------------------------|
A|---------------------------------------|
E|---------------------------------------|

A9 D/A E/A
Você lembra, lembra
D7M C#m7 Bm7 A G#º F#m7
Eu cos___tu___mava an__dar bem
F#m7 B/A G#m7 C#m7
Mais de mil léguas pra poder buscar
F#m7 D7M C#m7 Bm7 A
Flores de ma___io a___zuis
G#º F#m7 F7M(11+) A9
E os seus cabelos en____feitar

D/A E/A A4(7/9)

D E/D C#m7 F#4 F#
Água da fonte cansei de beber
B F#/A# G#m7 F# G#m6 Eb
Pra não en___ve__lhe____cer

G#/A# Eb7M Eb4/7(9)

G# Bb/Ab Gm7 C4 C
Como quisesse roubar da manhã
F C6/E Dm C G#º A9 D/A E/A
Um lin___do pôr de sol


D7M C#m7 Bm7 A G#º F#m7 F#m7 B/A
Ho___je não co_lho mais as flores de maio
G#m7 C#m7(9) Bbm7 D#7(9)
Nem sou mais veloz como os heróis


Bm7 E7(9) A9 D/A E/A
É... talvez eu seja simplesmente
D7M C#m7 Bm7 A G#º F#m7
Como um sa___pa_to ve___lho
F#m7 B/A G#m7 C#m7
Mas ainda sirvo, se você quiser
F#m7 D7M C#m7 Bm7 A
Basta você me cal__çar
G#º F#m7 F7M(11+) A9
Que eu aqueço o frio dos seus pés

D/A E/A G6

[Solo] F G F G
A9 D/A E/A G6
F G F Dm/F E4 E
G A

E|-8--7--8/10-7-------5-8-7-8/10-8-10-10/12-9-9h10p9-----------------|
B|-10--10------8---5h6------------------------------10-12-10---------|
G|-9-----------------------------------------------------------------|
D|-10----------------------------------------------------------------|
A|-------------------------------------------------------------------|
E|-------------------------------------------------------------------|

E|------9-12-9-10---9------------------------------------------------|
B|-10/12---------12---12--9-10-12-9-10--9----------10-12-12b11-9-11--|
G|----------------------11------------11----9-10-12------------------|
D|----------------------------------------11-------------------------|
A|-------------------------------------------------------------------|
E|-------------------------------------------------------------------|

E|----5----8-----10-----12-----13-15-13-12---------------------------|
B|-5h6-8/10-10/12--12/13--12/14--------------12----12----------------|
G|-------------------------------------------11h13-11h13-------------|
D|-------------------------------------------------------------------|
A|-------------------------------------------------------------------|
E|-------------------------------------------------------------------|

E|------9-12-9-10---9------------------------------------------------|
B|-10-12----------12-10-12--9-10-12-9-10--9--------------------------|
G|------------------------11------------11---9-11--------------------|
D|-----------------------------------------11------------------------|
A|-------------------------------------------------------------------|
E|-------------------------------------------------------------------|

D E/D C#m7 F#4 F#
Água da fonte cansei de beber
B F#/A# G#m7 F# G#m6 Eb
Pra não en___ve..lhe____cer

G#/A# Eb7M Eb4/7(9)

G# Bb/Ab Gm7 C4 C
Como quisesse roubar da manhã
F C6/E Dm C G#º A9 D/A E/A
Um lin___do pôr de sol


D7M C#m7 Bm7 A G#º F#m7 F#m7 B/A
Ho___je não co_lho mais as flores de maio
G#m7 C#m7(9) Bbm7 D#7(9)
Nem sou mais veloz como os heróis


Bm7 E7(9) A9 D/A E/A
É... talvez eu seja simplesmente
D7M C#m7 Bm7 A G#º F#m7
Como um sa___pa_to ve___lho
F#m7 B/A G#m7 C#m7
Mas ainda sirvo, se você quiser
F#m7 D7M C#m7 Bm7 A
Basta você me cal__çar
G#º F#m7 F7M(11+) A9
Que eu aqueço o frio dos seus pés

E9
Talvez eu seja simplesmente
Como um sapato velho
Mas ainda sirvo, se você quiser
Basta você me calçar
Que eu aqueço o frio dos seus pés

A9 D/A E/A D/A
A9

ACORDES PARA GUITARRA

PIANO UKELELE
A9
G
D
E9
E
D/A
E/A
Dmaj7
C#m7
Bm7
A
G#dim
F#m7
Fdim
B/A
G#m7
Fmaj7#11
A11
E/D
F#4
F#
B
F#/A#
G#m6
Eb
G#/A#
Ebm7
G#
Bb/Ab
Gm7
C4
C
F
C6/E
Dm
C#m9
Bbm7
D#9
E9
G6
Dm/F
E4


COMENTARIOS

Aún no hay comentarios,

¡escribe el primero!

Escribe una pregunta, duda o comentario sobre esta canción, te responderemos a la brevedad.

Las más tocadas de Roupa Nova

Toca una Canción al Azar de Roupa Nova
A9
G
D
E9
E
D/A
E/A
Dmaj7
C#m7
Bm7
A
G#dim
F#m7
Fdim
B/A
G#m7
Fmaj7#11
A11
E/D
F#4
F#
B
F#/A#
G#m6
Eb
G#/A#
Ebm7
G#
Bb/Ab
Gm7
C4
C
F
C6/E
Dm
C#m9
Bbm7
D#9
E9
G6
Dm/F
E4