A sangre y fuego (Acordes)

Saratoga

Subida por Centuflorcdo

Compartir


Cambiar Cifrado
Americano Latino

Cambiar Tonalidad
-1 +1
Imprimir FAQ
+A
-A

Texto

Desplazamiento

Transportador

Color de Fondo

Archivos

TONALIDAD, TAMAÑO, CIFRADO, SCROL.

Nos renovamos: Ahora puedes cambiar TODO haciendo clic en ICONO de la Guitarra () que aparece en la parte inferior de esta página.


LETRA CON ACORDES

Lo primero que quiero decir es que siento no poner los solos de
guitarra, es que el principal es muy grande y no he tenido tiempo
de sacarlos enteros,pero con casi toda certeza los pondré para la
siguiente actualización. Disculpad.



(Las quintas que están entre paréntesis en la tablatura se
tocan con un riff rápido y continuo, las que están entre
corchetes se mantienen durante unos segundos, las que aparecen
solas se tocan solo una vez y si van separadas por barras es que
se tocan muy continuas)



(En los asteriscos hace esto:)
-----------------------------------------------------------
-----------------------------------------------------------
-----------------------------------------------------------
-----------------------------------------------------------
-----------------------------------------------------------
-4h5-------------------------------------------------------






 (F#5)   (C#5)   (F#5)   (C#5)   (F#5)   (C#5)   [B5][C#5]
-----------------------------------------------------------
-----------------------------------------------------------
---------6---------------6---------------6-------4---6-----
-4-------6-------4-------6-------4-------6-------4---6-----
-4-------4-4p2---4-------4-4p2---4-------4-4p2---2---4-----
-2-2h4h5-------5-2-2h4h5-------5-2-2h4h5-------5-----------

(F#5)         E5/F#5
   Quiero saber
(F#5)                        (E5) E5/D#5/C#5
   Que hay en tu bola de cristal

-----------------------------------------------------------
-----------------------------------------------------------
-----------------------------------------------------------
-----------------------------------------------------------
-4-2-------------------------------------------------------
-----5-4---------------------------------------------------

(F#5)         E5/F#5
   Quién vencerá
(F#5)                   [C#5C#5/[C#5C#5/[C#5C#5/[C#5]
   En esta lucha sin final


(F#5)           E5/F#5
   Esta inquietud
(F#5)                        (E5) E5/D#5/C#5
   Me ha vuelto loco el corazón

-----------------------------------------------------------
-----------------------------------------------------------
-----------------------------------------------------------
-----------------------------------------------------------
-4-2-------------------------------------------------------
-----5-4---------------------------------------------------

F#5)           E5/F#5
   Sé de un lugar
(F#5)                  [C#5C#5/[C#5C#5/[C#5C#5/[C#5]
   Donde apagar mi frustración





[D5]   C#5/[B5]
El sol se esconde
       [F#5]      *[E5]
Hoy mi suerte cambiará

C#5/[D5]  C#5/[B5] [A5]  [C#5][C#5][C#5][C#5]
    Un cuervo negro vi volar



(F#5)   (C#5)   (F#5)   (C#5)   (F#5)   (C#5)   [B5][C#5]
-----------------------------------------------------------
-----------------------------------------------------------
---------6---------------6---------------6-------4---6-----
-4-------6-------4-------6-------4-------6-------4---6-----
-4-------4-4p2---4-------4-4p2---4-------4-4p2---2---4-----
-2-2h4h5-------5-2-2h4h5-------5-2-2h4h5-------5-----------
Dios creador, padre inmortal, ayúdanos, haznos triunfar


(F#5)        E5/F#5
   No regresó
(F#5)                    (E5) E5/D#5/C#5
   El mensajero que partió

-----------------------------------------------------------
-----------------------------------------------------------
-----------------------------------------------------------
-----------------------------------------------------------
-4-2-------------------------------------------------------
-----5-4---------------------------------------------------


(F#5)         E5/F#5
   Yo sé por qué
(F#5)               [C#5C#5/[C#5C#5/[C#5C#5/[C#5]
   El enemigo dijo no

[D5]   C#5/[B5]
A sangre y fuego
     [F#5]     *[E5]
La batalla romperá

C#5/[D5]  C#5/[B5][A5][C#5][C#5][C#5]
    Todos esperan mi señal


(F#5)   (C#5)   (F#5)   (C#5)   (F#5)   (C#5)  [B5][C#5]|
--------------------------------------------------------|
--------------------------------------------------------|
---------6---------------6---------------6-------4---6--|x2
-4-------6-------4-------6-------4-------6-------4---6--|
-4-------4-4p2---4-------4-4p2---4-------4-4p2---2---4--|
-2-2h4h5-------5-2-2h4h5-------5-2-2h4h5-------5--------|
Dios creador, padre inmortal, ayúdanos, haznos triunfar



(Aquí viene el solo de guitarra)




(F#5)      E5/F#5
   Oscuridad
(F#5)                   (E5) E5/D#5/C#5
   Cuando amenaza empezará

-----------------------------------------------------------
-----------------------------------------------------------
-----------------------------------------------------------
-----------------------------------------------------------
-4-2-------------------------------------------------------
-----5-4---------------------------------------------------


F#5)           E5/F#5
   Esa es su ley
(F#5)                  [C#5C#5/[C#5C#5/[C#5C#5/[C#5]
   El que no gane morirá


[D5]   C#5/[B5]
A sangre y fuego
     [F#5]     *[E5]
La batalla romperá

C#5/[D5]  C#5/[B5][A5][C#5][C#5][C#5]
    Todos esperan mi señal



(F#5)   (C#5)   (F#5)   (C#5)   (F#5)   (C#5)  [B5][C#5]|
--------------------------------------------------------|
--------------------------------------------------------|
---------6---------------6---------------6-------4---6--|x2
-4-------6-------4-------6-------4-------6-------4---6--|
-4-------4-4p2---4-------4-4p2---4-------4-4p2---2---4--|
-2-2h4h5-------5-2-2h4h5-------5-2-2h4h5-------5--------|
Dios creador, padre inmortal, ayúdanos, haznos triunfar



(La canción termina con otro pequeño solo de guitarra)


Video Clip de A sangre y fuego


ACORDES PARA GUITARRA

PIANO UKELELE
F#5
C#5
B5
E5
D5
A5


TOP 20: Las más tocadas de Saratoga


Toca una Canción al Azar de Saratoga

Acordes

Cerrar
F#5
C#5
B5
E5
D5
A5

10.44

x

126