Manos Unidas (Acordes)

Saratoga

Subida por Jesusdtheran

Compartir


Imprimir FAQ
+A
-A

Texto

Desplazamiento

Transportador

Color de Fondo

Archivos

-A
+A
Le correji algunos errores pero
me hiso el paro de no hacerla toda jaja
 by: Carlos Góngora

y pues si esta afinada un semitono abajo

asi se llama el tono A (no3) aunque es con novena
e|----0-----|
B|----0-----|
G|----2-----|
D|----2-----|
A|----0-----|
E|----0-----|


Em          D
  Azul, un mar azul
         G         E         Am
  Tan intenso como esa luz fugaz
C                D
  Que hay en tu cara

Em          D
  No hay nada mejor
          G            E         Am
  Que sentir tu aire fresco resbalar,
C            D
  Por mis heridas

B           Em
  Sueño con un final
D                   G
  Me hundo en la oscuridad
        Am      A3
  Y le pido a dios
   Am            B
  Verte una vez más

Em            D
  Sin trampa ni cartón
           G              E               Am
  Como el gesto de aquel niño que un día fui
C         D
  Y sigo siendo

Em           D
  El tiempo confirmó
          G           E             Am
  Que mi vida solo importa si estas tu
C              D
  Siempre con migo

B           Em
  Horas de soledad
D             G
  Generan esta ansiedad
           Am     A3
  Como el girasol
Am               B
  Muere si no estas

G               D
  Las manos unidas
G              D
  Sentir tu calor

Em
  Juntos para caminar
C
  Juntos para soportar
Am
  Juntos para comenzar
   D
  Mil aventuras

Em
  Vivos para compartir
C
  Vivos para discutir
Am
  Vivos para construir
   D
  Locos por vivir

Acompañamiento durante el solo:

Em - D - G - Em - Am - C - D  x2

Solo:

e|--------------------------------------------|
B|-------8--7---------------------------------|
G|--7/9--------7---------------------------9--|
D|----------------7--7/9--10--9h10--7---------|
A|-------------------------------------10-----|
E|--------------------------------------------|

e|--10/12--14--15-17h19-17---14----------|
B|-------------------------------15------|
G|-----------------------------------14--|
D|---------------------------------------|
A|---------------------------------------|
E|---------------------------------------|

e|--------------------------------------------12--|
B|-------8--7--------10/12--12-12h13--10----------|
G|--7/9--------7--------------------------12------|
D|----------------7-------------------------------|
A|------------------------------------------------|
E|------------------------------------------------|

e|--10/12--14--15--17--19--17----------|
B|-----------------------------20--19--|
G|-------------------------------------|
D|-------------------------------------|
A|-------------------------------------|
E|-------------------------------------|

B           Em
  Solo una cosa más
D           G
  Quiero manifestar
           Am      A3
  Que gracias a ti
   Am             B
  Pude ser quien soy

A        D       E
  Las manos unidas
A        D      E
  Sentir tu calor

F#m
  Juntos para caminar
D
  Juntos para soportar
Bm
  Juntos para comenzar
  E
  Mil aventuras

F#m
  Vivos para compartir
D
  Vivos para discutir
Bm
  Vivos para construir
  E
  Locos por vivir
  E
  Locos por vivir… locos por vivir… locos por vivir

HERRAMIENTAS ACORDESWEB:


LETRA DE LA CANCIÓN:

Ver la letra sola (sin acordes)

OTRAS VERSIONES DE LA MISMA CANCIÓN:

Ver. 2 Ver. 3 Ver. 4 Ver. 5 Ver. 6

DESCARGAR PDF / IMPRIMIR CANCIÓN



ACORDES PARA GUITARRA

PIANO UKELELE
Em
D
G
E
Am
C
B
A
A
F#m
Bm


TOP 20: Las más tocadas de Saratoga


Toca una Canción al Azar de Saratoga

Acordes

Cerrar
Em
D
G
E
Am
C
B
A
A
F#m
Bm

02.49


92