Resurrección (Acordes)

Saratoga

Subida por Claurenata

Compartir


Cambiar Cifrado
Americano Latino

Cambiar Tonalidad
-1 +1
Imprimir FAQ
+A
-A

Texto

Desplazamiento

Transportador

Color de Fondo

Archivos

TONALIDAD, TAMAÑO, CIFRADO, SCROL.

Nos renovamos: Ahora puedes cambiar TODO haciendo clic en ICONO de la Guitarra () que aparece en la parte inferior de esta página.


LETRA CON ACORDES

Esta canción está en Mi menor. La base rítmica está compuesta por Em, D,
A y B, eso SI, haciendo mucho picking ya que esta obra tiene mucha caña.
Así que enchufa el ampli, pon el volumen y la ganancia a 10 y si a los
vecinos no les gusta pues que se vayan...
      Em
e|----------------|---------------|----------------|------------------|
B|----------------|---------------|----------------|--------------Ha--|
G|----------------|------------Ha-|----------------|--------------v5--|
D|-2-2--------Ha--|-2-2---------3-|-2-2--------Ha--|---2---3---5------|
A|-2-2-3---2---3--|-2-2-2---3-----|-2-2-3---2---3--|-2---3---5--------|
E|-0-0---0---0----|-0-0---0---0---|-0-0---0---0----|------------------|

  Em
e|----------------|---------------|----------------|------------------|
B|----------------|---------------|----------------|------------------|
G|----------------|------------Ha-|----------------|------------------|
D|-2-2--------Ha--|-2-2---------3-|-2-2--------Ha--|---5---3---2---0--|
A|-2-2-3---2---3--|-2-2-2---3-----|-2-2-3---2---3--|-5---3---2---0----|
E|-0-0---0---0----|-0-0---0---0---|-0-0---0---0----|------------------|

     Em
e|----------------|---------------|----------------|------------------|
B|----------------|---------------|----------------|--------------Ha--|
G|----------------|------------Ha-|----------------|--------------v5--|
D|-2-2--------Ha--|-2-2---------3-|-2-2--------Ha--|---2---3---5------|
A|-2-2-3---2---3--|-2-2-2---3-----|-2-2-3---2---3--|-2---3---5--------|
E|-0-0---0---0----|-0-0---0---0---|-0-0---0---0----|------------------|

  Em
e|----------------|---------------|----------------|-------------------|
B|----------------|---------------|----------------|-------------------|
G|----------------|------------Ha-|----------------|-------------------|
D|-2-2--------Ha--|-2-2---------3-|-2-2--------Ha--|---5---3---2---0---|
A|-2-2-3---2---3--|-2-2-2---3-----|-2-2-3---2---3--|-5---3---2---0---0-|
E|-0-0---0---0----|-0-0---0---0---|-0-0---0---0----|-------------------|



En este trozo hay dos guitarras, una es la parte rítmica y la otra la parte
que acentúa la nota que le corresponde.

     3X
          Em         B    C    G
       e|----------|----|----|----|
       B|----------|----|----|----|
       G|----------|----|----|----|
       D|----------|-4--|-5--|-5--|
       A|-2-222222-|-2--|-3--|-5--|
       E|-0-000000-|----|----|-3--|

          Em         B    C    G
       e|----------|----|----|----|
       B|----------|----|----|----|
       G|----------|----|----|----|
       D|----------|-Ha-|-Ha-|----|
       A|-2-222222-|-v2-|-v3-|-Ha-|
       E|-0-000000-|----|----|-v3-|


    Em             B C G
 e|-----------------------|
 B|-----------------------|
 G|-----------------------|
 D|----------------4/5-5--|
 A|-2-22-2-22-2-2--2/3-5--|
 E|-0-00-0-00-0-0------3--|

 1- Toda la vida rezando
 2- Dices que no habrá
   Em               D
e|------------------------------------|
B|------------------------------------|
G|------------------------------------|
D|------------------7777777777777777--|
A|-2222222222222222-5555555555555555--|
E|-0000000000000000-------------------|

      1- por tu  parcela
      2- estos es una
       A                                      B
e|------------------------------------|
B|------------------------------------|
G|------------------------------------|
D|-2222222222222222-4444444444444444--|
A|-0000000000000000-2222222222222222--|
E|------------------------------------|

  1- en el cielo.
  2- transición.
   Em             D
e|------------------|
B|------------------|
G|------------------|
D|-999999999999-9-7-|
A|-777777777777-7-5-|
E|------------------|


1- No me importa si existe un final
   tal vez no
2- Yo no quiero saber que hay detrás
   del telón
    Em
 e|-----------------|
 B|-----------------|
 G|-----------------|
 D|----------9-7-4--|
 A|-2-2222--10-9-5--|
 E|-0-0000----------|

1- Y por eso prefiero vivir bien mi vida.
2- si tu tienes mas prisa termina.
   Em
e|----------------------|
B|----------------------|
G|----------------------|
D|----------9-7-4-2--4--|
A|-2-2222--10-9-5-3--5--|
E|-0-0000---------------|

     3X
          Em         B    C    G
       e|----------|----|----|----|
       B|----------|----|----|----|
       G|----------|----|----|----|
       D|----------|-4--|-5--|-5--|
       A|-2-222222-|-2--|-3--|-5--|
       E|-0-000000-|----|----|-3--|

          Em         B    C    G
       e|----------|----|----|----|
       B|----------|----|----|----|
       G|----------|----|----|----|
       D|----------|-Ha-|-Ha-|----|
       A|-2-222222-|-v2-|-v3-|-Ha-|
       E|-0-000000-|----|----|-v3-|

    Em             B C G
 e|-----------------------|
 B|-----------------------|
 G|-----------------------|
 D|----------------4-5-5--|
 A|-2-22-2-22-2-2--2-3-5--|
 E|-0-00-0-00-0-0------3--|

______________________________________

 1- No te resignas a ver
 2- Ciego prefieres creer
   Em               D
e|------------------------------------|
B|------------------------------------|
G|------------------------------------|
D|------------------7777777777777777--|
A|-2222222222222222-5555555555555555--|
E|-0000000000000000-------------------|

      1- lo que prepara
      2- que el paraiso vendrá tras el último
       A                                      B
e|------------------------------------|
B|------------------------------------|
G|------------------------------------|
D|-2222222222222222-4444444444444444--|
A|-0000000000000000-2222222222222222--|
E|------------------------------------|

  1- el destino.
  2- adiós.
   Em             D
e|------------------|
B|------------------|
G|------------------|
D|-999999999999-9-7-|
A|-777777777777-7-5-|
E|------------------|


1- No me importa si existe un final
   tal vez no
2- Yo no quiero saber que hay detrás
   del telón
    Em
 e|-----------------|
 B|-----------------|
 G|-----------------|
 D|----------9-7-4--|
 A|-2-2222--10-9-5--|
 E|-0-0000----------|

1- Y por eso prefiero vivir bien mi vida.
2- si tu tienes mas prisa termina.
   Em
e|----------------------|
B|----------------------|
G|----------------------|
D|----------9-7-4-2--4--|
A|-2-2222--10-9-5-3--5--|
E|-0-0000---------------|

e|---------|
B|---------|
G|---------|
D|-5---7---|
A|-7---9---|
E|---------|

 4X
e|---------------------------------|
B|---------------------------------|
G|---------------------------------|
D|---3/2---3/2---3/2---3/2--4-5-7--|
A|---3/2---3/2---3/2---3/2--2-3-5--|
E|-0-----0-----0-----0------2-3-5--|

  2X
e|-----------------------------------|
B|-----------------------------------|
G|-----------------------------------|
D|-5--4-5-5--5-7--8--10--8-7-5-4-5---|
A|-7--5-7-4--7-9-10--12-10-9-7-5-7---|
E|-----------------------------------|

 ***SOLO***


Video Clip de Resurrección


ACORDES PARA GUITARRA

PIANO UKELELE
A
B
B
Em
C
G
D


TOP 20: Las más tocadas de Saratoga


Toca una Canción al Azar de Saratoga

Acordes

Cerrar
A
B
B
Em
C
G
D

10.39

x

104