Vientos de Guerra (Acordes)

Saratoga

Subida por grego

Compartir


Cambiar Cifrado
Americano Latino

Cambiar Tonalidad
-1 +1
Imprimir FAQ
+A
-A

Texto

Desplazamiento

Transportador

Color de Fondo

Archivos

TONALIDAD, TAMAÑO, CIFRADO, SCROL.

Nos renovamos: Ahora puedes cambiar TODO haciendo clic en ICONO de la Guitarra () que aparece en la parte inferior de esta página.


LETRA CON ACORDES

EcO for life Hommies!

Intro:
           Palm Muted.......
------------------------------------------
------------------------------------------
--14-13-------------------------11--14-13-
--14-13----13-13-13-13-13-13----11--14-13-
--11-11----11-11-11-11-11-11-----9--11-11-
------------------------------------------
           Palm Muted.......
------------------------------------------
------------------------------------------
--14-13-------------------------9--11-14--
--14-13----13-13-13-13-13-13----9--11-14--
--11-11----11-11-11-11-11-11----7--9--11--
------------------------------------------

          Palm Muted.......
------------------------------------------
------------------------------------------
--14-13-------------------------11--14-13-
--14-13----13-13-13-13-13-13----11--14-13-
--11-11----11-11-11-11-11-11-----9--11-11-
------------------------------------------
           Palm Muted.......
------------------------------------------
------------------------------------------
--14-13-------------------------9--8------
--14-13----13-13-13-13-13-13----9--8--9---
--11-11----11-11-11-11-11-11----7--6--9---
--------------------------------------7---


Verso:

Cuenta hasta diez
 P.M...........
|-------------------------|
|-------------------------|
|-------------------------|
|----------------8-8-6-8--|
|----------------8-8-6-8--|
|-6666666666666--6-6-4-6--|

Cierra los ojos
 P.M...........
|-------------------------|
|-------------------------|
|-------------------------|
|----------------8-8-6-9-8|
|----------------8-8-6-9-8|
|-6666666666666--6-6-4-7-6|

   Alrededor
 P.M...........
|-------------------------|
|-------------------------|
|-------------------------|
|----------------8-8-6-8--|
|----------------8-8-6-8--|
|-6666666666666--6-6-4-6--|

  Del infinito
 P.M...........
|-------------------------|
|-------------------------|
|-------------------------|
|----------------8-8-6-9-8|
|----------------8-8-6-9-8|
|-6666666666666--6-6-4-7-6|



                                 FA#
   D#  A#  B                     E----
Pasión  cruel                    B----
   D#  A#   B FA#                G-11-
Querer ser  libre                D-11-
 D# A#  B                        A-9--
Contemplar                       E----

   Tu ejecucion,
|--------------------------|
|--------------------------|
|---6-6--6-6-------6-------|
|---6-6--6-6----6----6~----|
|---4-4--4-4--4------------|
|--------------------------|
   desolación
|---------------------------|
|--------------------7~-----|
|---7-7--7-7-------7--------|
|---7-7--7-7----7-----------|
|---5-5--5-5--5-------------|
|---------------------------


   INTRO

Verso:

 Sueños de Pz
 P.M...........
|-------------------------|
|-------------------------|
|-------------------------|
|----------------8-8-6-8--|
|----------------8-8-6-8--|
|-6666666666666--6-6-4-6--|

 Vientos de Guerra
 P.M...........
|-------------------------|
|-------------------------|
|-------------------------|
|----------------8-8-6-9-8|
|----------------8-8-6-9-8|
|-6666666666666--6-6-4-7-6|

  Tierra sin ley
 P.M...........
|-------------------------|
|-------------------------|
|-------------------------|
|----------------8-8-6-8--|
|----------------8-8-6-8--|
|-6666666666666--6-6-4-6--|

  Odio que ciega
 P.M...........
|-------------------------|
|-------------------------|
|-------------------------|
|----------------8-8-6-9-8|
|----------------8-8-6-9-8|
|-6666666666666--6-6-4-7-6|


                                 FA#
   D#  A#  B                     E----
No volveras                      B----
  D#  A#   B FA#                 G-11-
A ver sus caras                  D-11-
 D# A#  B                        A-9--
Contemplar                       E----


  Tu ejecucion,
|--------------------------|
|--------------------------|
|---6-6--6-6-------6-------|
|---6-6--6-6----6----6~----|
|---4-4--4-4--4------------|
|--------------------------|
  Resureccion
|---------------------------|
|--------------------7~-----|
|---7-7--7-7-------7--------|
|---7-7--7-7----7-----------|
|---5-5--5-5--5-------------|
|---------------------------

        G#   P.M........  G#
Junto al mar le vieron crecer
       G#   P.M......     F#
Dicen que volo con las aguilas
      E             B
Fue David contra Goliat
            D#     E    F#
Su espada a punto brillara

     G#   P.M........  G#
En su mente hay una razon
       G#   P.M......     F#
Para huir, muy pronto regresara
       E             B
Proclamar un nuevo pais
          D#    E    F#
Su pueblo entero luchara

  INTRO (pero esta vez termina asi:
----------------
----------------
----9--8--------
----9--8--9--6--
----7--6--9--6--
----------7--4--



    Solo:
(con tapping)

se acompaña con el acorde A# en P.M.


e-13-6-8-9-13-6-8-9-13-6-8-9-13-6-8-9
B------------------------------------
G------------------------------------

e-14-6-8-9-14-6-8-9-14-6-8-9-14-6-8-9
B------------------------------------
G------------------------------------

e-16-6-8-9-16-6-8-9-16-6-8-9-16-6-8-9
B------------------------------------
G------------------------------------

e-14-6-8-9-14-6-8-9-14-6-8-9-14-6-8-9
B------------------------------------
G------------------------------------

e-13-6-8-9-13-6-8-9-13-6-8-9-13-6-8-9
B------------------------------------
G------------------------------------

e-14-6-8-9-14-6-8-9-14-6-8-9-14-6-8-9
B------------------------------------
G------------------------------------

e-16-6-8-9-16-6-8-9-16-6-8-9-16-6-8-9
B------------------------------------
G------------------------------------

e-14-6-8-9-14-6-8-9-14-6-8-9-14-6-8-9
B------------------------------------
G------------------------------------

e---------------------------14~-------------------------
B--16~-11~-12~--16~-11~-12~-----16~-11~-12~-14~14~14~14~
G-------------------------------------------------------
D-------------------------------------------------------
A-------------------------------------------------------
E-------------------------------------------------------

 Armonics...                        Armonics...
|----------------------------------------------|
|--------------------15~15~15~15~----------7---|
|-------6--------------------------------7-----|
|-----6----6~--------------------------7-------|
|---4--------------------------------5---------|
|----------------------------------------------|

       G#   P.M........  G#
Junto al mar le vieron crecer
       G#   P.M......     F#
Dicen que volo con las aguilas
      E             B
Fue David contra Goliat
            D#     E    F#
Su espada a punto brillara

     G#   P.M........  G#
En su mente hay una razon
       G#   P.M......     F#
Para huir, muy pronto regresara
       E             B
Proclamar un nuevo pais
          D#    E    F#
Su pueblo entero luchara


Final:
           Palm Muted.......
------------------------------------------
------------------------------------------
--14-13-------------------------11--14-13-
--14-13----13-13-13-13-13-13----11--14-13-
--11-11----11-11-11-11-11-11-----9--11-11-
------------------------------------------
           Palm Muted.......
------------------------------------------
------------------------------------------
--14-13-------------------------9--11-14--
--14-13----13-13-13-13-13-13----9--11-14--
--11-11----11-11-11-11-11-11----7--9--11--
------------------------------------------

          Palm Muted.......
------------------------------------------
------------------------------------------
--14-13-------------------------11--14-13-
--14-13----13-13-13-13-13-13----11--14-13-
--11-11----11-11-11-11-11-11-----9--11-11-
------------------------------------------
           Palm Muted.......
-----------------------------------------------------
-----------------------------------------------------
--14-13-------------------------9--8------9--8-------
--14-13----13-13-13-13-13-13----9--8--9---9--8--9---6
--11-11----11-11-11-11-11-11----7--6--9---7--6--9---6
--------------------------------------7---------7---4


Video Clip de Vientos de Guerra


ACORDES PARA GUITARRA

PIANO UKELELE
F#
D#
A#
B
E
G
A
G#
F#


TOP 20: Las más tocadas de Saratoga


Toca una Canción al Azar de Saratoga

Acordes

Cerrar
F#
D#
A#
B
E
G
A
G#
F#

05.40

x

84