Eden (Acordes)

Savia

Subida por VioGiu

Compartir


Imprimir FAQ
+A
-A

Texto

Desplazamiento

Transportador

Color de Fondo

Archivos

-A
+A
Qe ond bandaa!
Puez aqi otra cancion de savia
Ezta zegun yo ezta completa
Ojala y lez zirva
PD. Zi alguien tiene chanza para un guitarrizta
en zu banda aqi ando dizponible


Intro:
ØØ:ØØ             x2
e|----------------|---------------------|---------------------
B|----------------|---------------------|---------------------
G|----------------|-5-xx-5-xx-5-xx-5h7--|-3-xx-3-xx-3-xx-3h5--
D|-5-xx-5-xx-5h7--|-5-xx-5-xx-5-xx-5h7--|-3-xx-3-xx-3-xx-3h5--
A|-5-xx-5-xx-5h7--|-3-xx-3-xx-3-xx-3h5--|-1-xx-1-xx-1-xx-1h3--
E|-3-xx-3-xx-3h5--|---------------------|---------------------

----------------|
----------------|
----------------|
-5-xx-5-xx-5h3--|
-5-xx-5-xx-5h3--|
-3-xx-3-xx-3h1--|


ØØ:19
G                       F
 He llegado aquí por casualidad
       Am                  C
y no dejaré escapar mi oportunidad
G                        F
 un tesoro guardo en mi corazón
      Am                             C
y la llave has de encontrar para empezar.
           G
Y estuve allí
       Am
Y rescaté
           F                          C
Todas las frases cartas libros que nunca leí
         G            Am
y encenderé la llama que
            F                         C
un día dio luz a nuestras vidas y que se apagó.

Ø1:18             x2
e|----------------|---------------------|---------------------
B|----------------|---------------------|---------------------
G|----------------|-5-xx-5-xx-5-xx-5h7--|-3-xx-3-xx-3-xx-3h5--
D|-5-xx-5-xx-5h7--|-5-xx-5-xx-5-xx-5h7--|-3-xx-3-xx-3-xx-3h5--
A|-5-xx-5-xx-5h7--|-3-xx-3-xx-3-xx-3h5--|-1-xx-1-xx-1-xx-1h3--
E|-3-xx-3-xx-3h5--|---------------------|---------------------

----------------|
----------------|
----------------|
-5-xx-5-xx-5h3--|
-5-xx-5-xx-5h3--|
-3-xx-3-xx-3h1--|

Ø1:36
G                       F
 La fatiga es solo una decepción
Am                               C
 que se hace notar así entre los dos
G                F
 el temor ataca la raíz
     Am                          C
y la savia de tu amor me hace vivir.
           G
Y estuve allí
       Am
Y rescaté
           F                          C
Todas las frases cartas libros que nunca leí
         G            Am
y encenderé la llama que
            F                         C
un día dio luz a nuestras vidas y que se apagó.
¡Quiero empezar!

Ø2:34
D|-3h5-xxx-x65-xxx-x65-xxx-x56-xxx-x65-xx-765h4--

Ø2:42                        x4
D|xx-xxxx-xxx--xx-xxxx-xxxx--|
A|xx-xxxx-xxx--xx-xxxx-xxxx--|
E|xx-xxxx-xxx--xx-xxxx-xxxx--|

Ø2:55
D|-3h5-555-65-555-65-555-56-555-65-55-765h4sss--7sss--

Ø3:16
           G
Y estuve allí
       Am
Y rescaté
           F                          C
Todas las frases cartas libros que nunca leí
         G            Am
y encenderé la llama que
            F                         C
un día dio luz a nuestras vidas y que se apagó.
¡Quiero empezar!

                  x2
e|----------------|---------------------|---------------------
B|----------------|---------------------|---------------------
G|----------------|-5-xx-5-xx-5-xx-5h7--|-3-xx-3-xx-3-xx-3h5--
D|-5-xx-5-xx-5h7--|-5-xx-5-xx-5-xx-5h7--|-3-xx-3-xx-3-xx-3h5--
A|-5-xx-5-xx-5h7--|-3-xx-3-xx-3-xx-3h5--|-1-xx-1-xx-1-xx-1h3--
E|-3-xx-3-xx-3h5--|---------------------|---------------------

----------------|
----------------|
----------------|
-5-xx-5-xx-5h3--|FIN
-5-xx-5-xx-5h3--|
-3-xx-3-xx-3h1--|




Puez creo yo, qe ezta completa
Ojala lez zalga bien
Y ya zaben qe ahi ezta mi msn para qe me agreguen
Para platicar, intercambiar tabz, decirme qe me qieren mucho xD,
tratar de hackearme y para lo qe qieran

PD. Puez Un zaludo a Caro <3, y le dedico ezta tablatura...
LA amo...


                         ·Logan †Zephiroth†·

HERRAMIENTAS ACORDESWEB:


LETRA DE LA CANCIÓN:

Ver la letra sola (sin acordes)

OTRAS VERSIONES DE LA MISMA CANCIÓN:

Ver. 2 Ver. 3 Ver. 4

DESCARGAR PDF / IMPRIMIR CANCIÓN



ACORDES PARA GUITARRA

PIANO UKELELE
G
F
Am
C
A


TOP 20: Las más tocadas de Savia


Toca una Canción al Azar de Savia

Acordes

Cerrar
G
F
Am
C
A

16.32


71