Libertad (Acordes)

Savia

Subida por KENTHSDQ

Compartir


Cambiar Cifrado
Americano Latino

Cambiar Tonalidad
-1 +1
Imprimir FAQ
+A
-A

Texto

Desplazamiento

Transportador

Color de Fondo

Archivos

TONALIDAD, TAMAÑO, CIFRADO, SCROL.

Nos renovamos: Ahora puedes cambiar TODO haciendo clic en ICONO de la Guitarra () que aparece en la parte inferior de esta página.


LETRA CON ACORDES

Bueno aqui les tengo una cancion de SAVIA

Aqui en esta tablatura basta con que a la vez que la toquen
escuchen la cancion para entender los tiempos y rasgueos correctos.



0:06
Empieza con una ligera distorcion controlada.

0:11
e|--------------------------|---------------------------|
b|--------------------------|---------------------------|
G|--------------------------|---------------------------|
D|--------------------------|---------------------------|
A|-6-9-8-6-8-6----9-8---6-8-|--6-9-8-6-8-6----9-8-6-9-8-|  x2
E|--------------------8-----|---------------------------|


Riff 1-----0:19
e|-------------------------------------|
b|-------------------------------------|
G|-----------8/10-10----------8/10-10--|
D|-10-10-----8/10-10---10-10--8/10-10--|
A|-10-10-----6/8--8----10-10--6/8--8---|
E|--8--8---------------8--8------------|

e|-------------------------------------|
b|-------------------------------------|
G|----------8/10-10----------11-10-----|
D|---10-10--8/10-10---10-10--11-10-----|
A|---10-10--6/8--8----10-10--9--8------|  x4
E|---8--8-------------8--8-------------|


Riff 2--ESTROFA--0:37
e|------------------------------------------|
b|------------------------------------------|
G|------------------------------------------|
D|-10----10-10-10---10-10-10----10-10-10----|
A|-10----10-10-10---10-10-10----10-10-10----|
E|-8-----8--8--8----8--8--8-----8--8--8-----|

e|----------------------------------------------|
b|----------------------------------------------|
G|----------------------------------------------|
D|---10-10-8----8-8-8----8-8-3----3-3-5-5-5-----|
A|---10-10-8----8-8-8----8-8-3----3-3-5-5-5-----|   X2
E|---8--8--6----6-6-6----6-6-1----1-1-3-3-3-----|

como decirte que esta vez
me condenas a morder
la manzana que por primera vez corté

si, soy culpable de soñar de llegar a ser mejor
de rozar la libertad con mis almas y mi voz


Riff 3-----0:54                      2da. guitarra efecto.----0:54
e|---------------------------|  >>>>   |--------------------------|
b|---------------------------|  >>>>   |--------------------------|
G|---------------------------|  >>>>   |---8-8--------10-10-------|
D|-10-10-10-10----8-8-8-8----|         |-6-----(x8)--8-------(x8)-|
A|-10-10-10-10----8-8-8-8----|X2       |--------------------------| x2
E|-8--8--8--8-----6-6-6-6----|         |--------------------------|


con la fuerza de un ciclon que habita en mi interior,
volveré a guardar mis pecados en el cajon para...


CORO:
Riff 4-----1:12
e|-----------------------------|
b|-----------------------------|
G|-----------------------------|
D|-5-5-5-5---7---8-3-3-3-------|
A|-5-5-5-5---7---8-3-3-3-------|   X2
E|-3-3-3-3---5---6-1-1-1-------|


pedir al tiempo que pare mi reloj.
llorar al mundo, que cura tu traición.


Riff 1-----1:34
e|-------------------------------------|
b|-------------------------------------|
G|-----------8/10-10----------8/10-10--|
D|-10-10-----8/10-10---10-10--8/10-10--|
A|-10-10-----6/8--8----10-10--6/8--8---|
E|--8--8---------------8--8------------|

e|-------------------------------------|
b|-------------------------------------|
G|----------8/10-10----------11-10-----|
D|---10-10--8/10-10---10-10--11-10-----|
A|---10-10--6/8--8----10-10--9--8------|  x2
E|---8--8-------------8--8-------------|


Riff 2--ESTROFA--1:43
e|------------------------------------------|
b|------------------------------------------|
G|------------------------------------------|
D|-10----10-10-10---10-10-10----10-10-10----|
A|-10----10-10-10---10-10-10----10-10-10----|
E|-8-----8--8--8----8--8--8-----8--8--8-----|

e|----------------------------------------------|
b|----------------------------------------------|
G|----------------------------------------------|
D|---10-10-8----8-8-8----8-8-3----3-3-5-5-5-----|
A|---10-10-8----8-8-8----8-8-3----3-3-5-5-5-----|   X2
E|---8--8--6----6-6-6----6-6-1----1-1-3-3-3-----|


como la lluvia vi caer
esta vez te veo a ti
salpicando y ensuciando mi porvenir.

ya me canse de tu ambicion
por romper y destruir
por quemar y aniquilar


Riff 3-----2:00                        2da. guitarra efecto.----0:54
e|---------------------------|  >>>>   |--------------------------|
b|---------------------------|  >>>>   |--------------------------|
G|---------------------------|  >>>>   |---8-8--------10-10-------|
D|-10-10-10-10----8-8-8-8----|         |-6-----(x8)--8-------(x8)-|
A|-10-10-10-10----8-8-8-8----|X1       |--------------------------| x1
E|-8--8--8--8-----6-6-6-6----|         |--------------------------|


mi reputación que guardé
y cuidé esta vez para...


CORO:
Riff 4-----2:09
e|-----------------------------|
b|-----------------------------|
G|-----------------------------|
D|-5-5-5-5---7---8-3-3-3-------|
A|-5-5-5-5---7---8-3-3-3-------|   X3
E|-3-3-3-3---5---6-1-1-1-------|


pedir al tiempo que pare mi reloj.
llorar al mundo, que cura tu traición
y suelto el lastre y arrojo el dolor


2:35
e|---------------------|
b|---------------------|
G|-8-------10----------|
D|-8-(x8)--10-(x8)-----|
A|-6-------8-----------|
E|---------------------|

para subir muy alto sí,para tocar y oler...



Riff 1-----2:43
e|-------------------------------------|
b|-------------------------------------|
G|-----------8/10-10----------8/10-10--|
D|-10-10-----8/10-10---10-10--8/10-10--|
A|-10-10-----6/8--8----10-10--6/8--8---|
E|--8--8---------------8--8------------|

e|-------------------------------------|
b|-------------------------------------|
G|----------8/10-10----------11-10-----|
D|---10-10--8/10-10---10-10--11-10-----|
A|---10-10--6/8--8----10-10--9--8------|  x4
E|---8--8-------------8--8-------------|


libertaaaaaaaaaaaaaaaad  !!!!!!!!!!!!!!!!


acompañamiento del
termino del solo >>>> 3:01
e|-------------------|
b|-------------------|
G|------------8---10-|
D|-10-10-10---8---10-|
A|-10-10-10---6---8--|
E|-8--8--8-----------|


CORO:
Riff 4-----3:10
e|-----------------------------|
b|-----------------------------|
G|-----------------------------|
D|-5-5-5-5---7---8-3-3-3-------|
A|-5-5-5-5---7---8-3-3-3-------|   X4
E|-3-3-3-3---5---6-1-1-1-------|


pedir al tiempo que pare mi reloj.
llorar al mundo, que cura tu traición
y suelto el lastre, arrojo el odio,
intento calmar el dolor, para subir
subir muy alto y asi poder tocar a dios


LES AGRADECERIA Q SI NO ENTIENDEN ALGO ME LO HAGAN SABER A
 [email protected]


Video Clip de Libertad


ACORDES PARA GUITARRA

PIANO UKELELE


TOP 20: Las más tocadas de Savia


Toca una Canción al Azar de Savia

Acordes

Cerrar

21.54

x

79