Desfile Infernal (Acordes)

Sekta Core

Subida por Mariuxi

Compartir


Imprimir FAQ
+A
-A

Texto

Desplazamiento

Transportador

Color de Fondo

Archivos

-A
+A
Que hay compañeros pues aqui trayedoles una rola muy buena de la
sekta muy pedida y pues la verdad is esta muy facil solo se necesita
mucha agilidad en los dedos. Espero les sirva

Intro.


---------------------------------------------------------
---------------------------------------------------------
----------5--4--5-------------------5--4--5-5-4--6--5-3--
--3-3--6----------3---------3-3--6-----------------------
---------------------------------------------------------
---------------------------------------------------------

DESPUES SE REPITE EL INTRO PERO HAY UNA PEQUEÑA VARIACION

-----------------------------------------------------
-----------------------------------------------------
----------5--4--5---------5--4--5--4-----------------
--3-3--6----------3-3--6-------------6-5-3-----------
-----------------------------------------------------
-----------------------------------------------------  X2


---------------------------------------------
---------------------------------------------
---------------------------------------------
---------------------------------------------
----------3--2--3---------3--2--3--2---------
--1-1--4----------1-1--4-------------4-3-1---  X2


MIENTRAS CANTA SE TOCA ESTO:


--12-11-12--11-12-11--8--11--10-8-----
--------------------------------------
--------------------------------------
--------------------------------------
--------------------------------------
-------------------------------------- SE REPITE

El desfile ha llegado a nuestra ciudad
Estén todos preparados
Para espantar

Todos con disfraces y caras bestiales
Hay otros seres con cuerpo de animales
Es el circo del infierno
Es muy cruel y muy enfermo

-----------------------------------------------------
-----------------------------------------------------
----------5--4--5---------5--4--5--4-----------------
--3-3--6----------3-3--6-------------6-5-3-----------
-----------------------------------------------------
-----------------------------------------------------  X2


---------------------------------------------
---------------------------------------------
---------------------------------------------
---------------------------------------------
----------3--2--3---------3--2--3--2---------
--1-1--4----------1-1--4-------------4-3-1---  X2


Pues el diablo da el placer
Que te vayas a esconder
Es un circo fenomenal
Y esta listo para comenzar

Pueden ser demonios
Y seres extraños
Pon atención y veras del otro lado
Demonios con nueve cuernos
Importados del averno
Ángeles negros gozaran de tus lamentos

(ESTO SE TOCA MIENTRAS CANTAN "TUS LAMENTOS" GUIATE ESCUCHANDO
LA CANCION)

---------------------------------------------
---------------------------------------------
---------------------------------------------
--3-3-3---3-2-1--3-3-3-----------------------
--3-3-3----------3-3-3--3-2-1----------------
--3-3-3----------3-3-3-----------------------

tus lamentos
tus lamentos
tus lamentos
tus lamentos
----------------------------------------------------------------
----------------------------------------------------------------
----------------------------------------------------------------
----------------------------------------------------------------
----------------------------------------------------------------
--4--3--2--4--3--2--4--3--2--4--3--2--4--3--2-------4--3--2--1--


LA ROLA TERMINA CON ESTO

-------------------------------------------
-------------------------------------------
--5---4--3--2--1--0--------------5-4-5--3--
----------------------3--2--3-3---------3--
-------------------------------------------
-------------------------------------------

Pues esto es todo espero y le entiendan muy buena rola un saludo a
toda la banda de ixtapaluca y a toda la banda que le gusta el
ska-core.


Video Clip de Desfile Infernal


ACORDES PARA GUITARRA

PIANO UKELELE


TOP 20: Las más tocadas de Sekta Core


Toca una Canción al Azar de Sekta Core

Acordes

Cerrar

15.02

x

69