Ser fuertes (Acordes)

Sekta Core

Full Álbum: ¡Con fuerza! (2002)
Subida por Adoro

Compartir


Imprimir FAQ
+A
-A

Texto

Desplazamiento

Transportador

Color de Fondo

Archivos

-A
+A

Me dijo mi primo que les enseñara mas canciones de la sekta,
asi que pongan atencion mensos:

afinacion standard  E,A,D,G,B,E


intro
----------------------------------
----------------------------------
----------------------------------
---------6----------------6-------
-----3---4-----------3----4-------
-----1---------------1------------


cambia a:
---11111/44444---------11111/44444----
---11111/44444---------11111/44444----
---11111/44444---------11111/44444----
-----------------------------------------
-----------------------------------------
-----------------------------------------

despues se quita la distorcion y se toca a 
ritmo de ska

--1--1--1--1-----4--4--4--4--------------
--1--1--1--1-----4--4--4--4--------------
--1--1--1--1-----4--4--4--4--------------
-----------------------------------------
-----------------------------------------
-----------------------------------------


despues entra distorcion y se toca lo sig.

-----------------------------------------
-----------------------------------------
-----------------------------------------
------6--5--3----------------------------
--3---4--3--1----5-----------------------
--1--------------3-----------------------


regresa el riff 2
y luego el 3 con el verso


despues hay otra variacion

---------------------------------------
---------------------------------------
---------------------------------------
--3-----------6------3-----------6-----
--1--3--5--6--4------1--3--5--6--4-----
-----1--3--4------------1--3--4---------

--------------------------------------------------
--------------------------------------------------
--------------------------------------------------
--3-----------6------3-----------6--5--3----------
--1--3--5--6--4------1--3--5--6--4--3--1--5--2-----
-----1--3--4------------1--3--4-----------3--0------




ahi esta, no digan que esta mal, porque demostraran que 
estan bien pendejos.

saludos al rizo y al cotardo y a mi primo el dobermann.


Video Clip de Ser fuertes


ACORDES PARA GUITARRA

PIANO UKELELE
E
A
D
G
B


TOP 20: Las más tocadas de Sekta Core


Toca una Canción al Azar de Sekta Core

Acordes

Cerrar
E
A
D
G
B

07.31

x

84