El fantasma de la rana (Acordes)

Sekta Core

Subida por Luisma

Compartir


Imprimir FAQ
+A
-A

Texto

Desplazamiento

Transportador

Color de Fondo

Archivos

-A
+A
Ahi les va esta cancion de los verdaderos y maltratados 
reyes del ska de este pais.


El comienzo es simple, solo se repite FA siguiendo 
LA bateria

Despues del pequeño intro y durante todo el verso 
(´una noche enla colonia...´)
va el siguiente circulo.

e---6-------4------2-------0
B---6-------4------2-------1
G---7-------5------3-------0
D---8-------6------4-------2
A---8-------6------4-------3
E---6-------4------2-------3
    LA#    SOL#    FA#    DO


Cuando enra la voz del wiwi y dice ´el fantasma de la rana, 
el fantasma de 
de la rana...´ cambia a

e---7-----7
B---8-----7
G---9-----7
D---9-----9
A---7-----9
E---7-----7

Y en el coro se toca lo siguiente con distorsion

e-------------------------------
B-------------------------------
G-------------------------------
D--7-------5--------3--------2--
A--5-------3--------1--------0--
E-------------------------------


La ultima variacion es cuando se toca la parte lenta 
donde cotardo canta ´hasta que una noche...´

e----5-------4----------2------1
B----5-------4----------2------1
G----6-------5----------3------2
D----7-------6----------4------3
A----7-------6----------4------3
E----5-------4----------2------1


Es todo lo que necesitan saber de esta cancion, espero que 
les guste y que suban mas canciones de la sekta.


Video Clip de El fantasma de la rana


ACORDES PARA GUITARRA

PIANO UKELELE
A
A#
G#
F#
C


TOP 20: Las más tocadas de Sekta Core


Toca una Canción al Azar de Sekta Core

Acordes

Cerrar
A
A#
G#
F#
C

08.11

x

67