Pánico (Acordes)

Sekta Core

Subida por Jonathan23

Compartir


Imprimir FAQ
+A
-A

Texto

Desplazamiento

Transportador

Color de Fondo

Archivos

-A
+A
Que hay karnales esta cancion esta muy chida solo tuve un problema no
pude sacar el solo pero todo lo demas me suena casi igual espero y
les sirva de algo.

metanle distorcion chida

intro

--------------------------------------------------
--------------------------------------------------
--8/9--12-8-9-9-12-11--8-9-12-8-9-9-12-11-8-9-----
--------------------------------------------------
--------------------------------------------------
--------------------------------------------------


----------------------------------------------------
----------------------------------------------------
--12-11-10-9--12-11-10-9--12-11-10-9--12-11-10-9-9--
----------------------------------------------------
----------------------------------------------------
----------------------------------------------------


Corres por las calles, quien te persigue tu sigues huyendo no te alcanzaran
--------------------------------------------------------------------------
--------------------------------------------------------------------------
--------------------------------------------------------------------------
--5-----------------------------------------4----------------3------------
--5-----------------------------------------4----------------3------------
--3-----------------------------------------2----------------1------------


ESTA PARTE SE TOCA MIENTRAS CANTA
-12-9-12-9-12-9--h12-h11-h10-h9--12-9-12-9-12-9--h12-h11-h10-h9--
-----------------------------------------------------------------
-----------------------------------------------------------------
-----------------------------------------------------------------
-----------------------------------------------------------------
-----------------------------------------------------------------
sin mirar atras tu sigues huyendo
quien te persigue no sientas mied al miedo



para, respira, voltea sin miedo hacia tras ya no hay nadie
--------------------------------------------------------
--------------------------------------------------------
--------------------------------------------------------
--5-----------------------------4----------3------------
--5-----------------------------4----------3------------
--3-----------------------------2----------1------------


--------------------------------------------------
--------------------------------------------------
--8/9--12-8-9-9-12-11--8-9-12-8-9-9-12-11-8-9-----
--------------------------------------------------
--------------------------------------------------
--------------------------------------------------

La paranoia se adueña de ti quien te persigue no hay nadie tras de ti
----------------------------------------------------------
----------------------------------------------------------
----------------------------------------------------------
--5-------------------------4----------------3------------
--5-------------------------4----------------3------------
--3-------------------------2----------------1------------

DE NUEVO SE TOCA ESTO MIENTRAS CANATA

-12-9-12-9-12-9--h12-h11-h10-h9--12-9-12-9-12-9--h12-h11-h10-h9--
-----------------------------------------------------------------
-----------------------------------------------------------------
-----------------------------------------------------------------
-----------------------------------------------------------------
-----------------------------------------------------------------
sin mirar atras tu sigues huyendo
quien te persigue no sientes miedo al miedo



para. respira, voltea son miedo hacia tras ya no hay naidie
--------------------------------------------------------
--------------------------------------------------------
--------------------------------------------------------
--5-----------------------------4----------3------------
--5-----------------------------4----------3------------
--3-----------------------------2----------1------------

--------------------------------------------------
--------------------------------------------------
--8/9--12-8-9-9-12-11--8-9-12-8-9-9-12-11-8-9-----
--------------------------------------------------
--------------------------------------------------
--------------------------------------------------

DESPUES DE TERMINAR ESTO SIGUE EL SOLO ESTE LO PUEDEN IMPROVISAR

DESPUES DE TERMINAR EL SOLO SE TOCA EL INTRO MIESTRAS CANTAN

--------------------------------------------------
--------------------------------------------------
--8/9--12-8-9-9-12-11--8-9-12-8-9-9-12-11-8-9-----
--------------------------------------------------
--------------------------------------------------
--------------------------------------------------
Pánico, panico, paranoia
Panico, panico, paranoia
Panico, panico, paranoia
Panico, panico, paranoia
Panico!!!

PUEDEN TERMINAR LA ROLA CON ESTO

-------------
-------------
-------------
--2----------
--2----------
--0----------

Eso es todo compañeros espero que le entiendan arriba
la sekta core y arriba el ska-core !!!!!


Video Clip de Pánico


ACORDES PARA GUITARRA

PIANO UKELELE


TOP 20: Las más tocadas de Sekta Core


Toca una Canción al Azar de Sekta Core

Acordes

Cerrar

07.23

x

75