Be Still My Beating Heart
Sting
Acordes

Subida por Ponchile
Álbum: …Nothing Like the Sun ( 1987)


Más Versiones
Ver. 2

Cambiar Cifrado
Americano Latino

Cambiar Tonalidad
-1 +1

Partir Pantalla Imprimir FAQ

+A
-A
Album:  Nothing Like The Sun

(Tabbed by Oli - *)


This tablature is a helping sketch. It doesn?t contain the correct
sort of bars and notes. Nevertheless, I'm sure you'll be able to
figure out and I hope it will help you!



INTRO:
G|---------------------------|
D|--7757---------------------|
A|---------------------------| 1x
E|---------------------------|

G|---------------------------|
D|----5-7757-5-5----5-7757---|
A|---7--------7----7---------| 3x
E|--5-------------5----------|

TRANSITION TO VERSE:
G|---------------------------|
D|----5-7757-5-5-------------|
A|---7--------7--------------|
E|--5------------------------|


VERSE 1 (REPEATED THROUGHOUT THE VERSE):
G|------------------------------------------------------------------------|
D|------------------------------------------------------------------------|
A|------------------------------------------------------------------------|
E|--3333-3-5-3-53---------------------------------------------------------|


TRANSITION TO REFRAIN:
G|----7--7--9--9--10--10--11--11--0~--------------------------------------|
D|------------------------------------------------------------------------|
A|--5--5--7--7--8---8---9---9---------------------------------------------|
E|------------------------------------3-3~--------------------------------|
I've been to every single book I know...


REFRAIN:
G|------------------------------------------------------------------------|
D|--5---------------------------------------------------------------------|
A|---5~--57~--78~--810~--55~--57~-----------------------------------------|
E|------------------------------------------------------------------------|
I sink like a stone...

G|---------------------------|
D|--7757---------------------|
A|---------------------------| 1x
E|---------------------------|

G|---------------------------|
D|----5-7757-5-5----5-7757---|
A|---7--------7----7---------| 3x
E|--5-------------5----------|

G|---------------------------|
D|----5-7757-5-5-------------|
A|---7--------7--------------|
E|--5------------------------|



VERSE 2 (REPEATED THROUGHOUT THE VERSE):
G|------------------------------------------------------------------------|
D|------------------------------------------------------------------------|
A|------------------------------------------------------------------------|
E|--3333-3-5-3-53---------------------------------------------------------|



TRANSITION TO REFRAIN:
G|----7--7--9--9--10--10--11--11--12--12--12--12--------------------------|
D|------------------------------------------------------------------------|
A|--5--5--7--7--8---8---9---9--10--10--10--10-----------------------------|
E|------------------------------------------------------------------------|
I've been to every single book I know...


REFRAIN:
G|------------------------------------------------------------------------|
D|--5---------------------------------------------------------------------|
A|---5~--57~--78~--810~--55~--57~-----------------------------------------|
E|------------------------------------------------------------------------|
I sink like a stone...

G|---------------------------|
D|--7757---------------------|
A|---------------------------| 1x
E|---------------------------|

G|---------------------------|
D|----5-7757-5-5----5-7757---|
A|---7--------7----7---------| 3x
E|--5-------------5----------|

G|---------------------------|
D|----5-7757-5-5-------------|
A|---7--------7--------------|
E|--5------------------------|


INTERLUDE:
G|------------------------------------------------------------------------|
D|----------------------------------------------7----7----7---------------|
A|--3~--0~-------------3~--0~--------------7-----7----7----7--------------|
E|----------1~---11~--3--------1~---11~-----5~----5~---5~---5~------------|
Never to be wrong...


REFRAIN:
G|------------------------------------------------------------------------|
D|--5---------------------------------------------------------------------|
A|---5~--57~--78~--810~--55~--57~-----7~----------------------------------|
E|------------------------------------------------------------------------|
I sink like a stone...

G|---------------------------|
D|--7757---------------------|
A|---------------------------| 1x
E|---------------------------|

G|---------------------------|
D|----5-7757-5-5----5-7757---|
A|---7--------7----7---------| 3x
E|--5-------------5----------|

G|---------------------------|
D|----5-7757-5-5-------------|
A|---7--------7--------------|
E|--5------------------------|



FADE OUT (REPEATED UNTIL FADED OUT):
G|------------------------------------------------------------------------|
D|------------------------------------------------------------------------|
A|------------------------------------------------------------------------|
E|--3333-3-5-3-53---------------------------------------------------------|


ACORDES PARA GUITARRA

PIANO UKELELE


COMENTARIOS

Aún no hay comentarios,

¡escribe el primero!

Escribe una pregunta, duda o comentario sobre esta canción, te responderemos a la brevedad.

Las más tocadas de Sting

Toca una Canción al Azar de Sting