They Dance Alone
Sting
Acordes

Subida por humbertoRdz13


Más Versiones
Ver. 2

Cambiar Cifrado
Americano Latino

Cambiar Tonalidad
-1 +1

Partir Pantalla Imprimir FAQ

+A
-A


Ver solo la LETRA
Album:  Nothing Like The Sun


(Tabbed by Oli - *)


This tablature is a helping sketch. It doesn?t contain the correct
sort of bars and notes. Nevertheless, I'm sure you'll be able to
figure out (in this song particularly the FADE OUT section!) and
I hope it will help you!


INTRO:
G|------------------------------------------------------------------------|
D|------------------------------------------------------------------------|
A|----0~----0~----0~----0~------------------------------------------------|
E|--2-----2-----2-----2---------------------------------------------------|


VERSE 1:
G|------------------------------------------------------------------------|
D|-----------------------------------------------9------------------------|
A|--12-12--12--12--12-12-12-12--12-12--12-12-------------7-7--7-7---7-7---| 2x
E|-------------------------------------------7-7--77-7-7------------------|


REFRAIN:
G|------------------------------------------------------------------------|
D|------------------------------------------------------------------------|
A|----0~----0~----0~----0~----5~----5~------------------------------------|
E|--2-----2-----2-----2-----3-----3-----0-----0---------0~----------------|
(B|--------------------------------------(3~)--(3~)-----------------------|)

G|-------------2----------------------------------------------------------|
D|------------------------------------------------------------------------|
A|----0~----0~----0~----0~------------------------------------------------|
E|--2-----2-----2-----2---------------------------------------------------|


VERSE 2:
G|------------------------------------------------------------------------|
D|-----------------------------------------------9------------------------|
A|--12-12--12--12--12-12-12-12--12-12--12-12-------------7-7--7-7---7-7---| 2x
E|-------------------------------------------7-7--77-7-7------------------|


REFRAIN:
G|------------------------------------------------------------------------|
D|------------------------------------------------------------------------|
A|----0~----0~----0~----0~----5~----5~------------------------------------|
E|--2-----2-----2-----2-----3-----3-----0-----0---------0~----------------|
(B|--------------------------------------(3~)--(3~)-----------------------|)

INTERLUDE:
G|------------------------------------------------------------------------|
D|------------------------------------------------------------------------|
A|--4--5--2------4--5--2------4--5--2------4--5--2-------------0~---------|
E|-----------2------------2------------2------------2---------------------|
One day we'll dance...

G|-------------2----------------------------------------------------------|
D|--4---------------------------------------------------------------------|
A|----0~----0~----0~----0~------------------------------------------------|
E|--------2-----2-----2---------------------------------------------------|


VERSE 3:
G|------------------------------------------------------------------------|
D|-----------------------------------------------9------------------------|
A|--12-12--12--12--12-12-12-12--12-12--12-12-------------7-7--7-7---7-7---| 2x
E|-------------------------------------------7-7--77-7-7------------------|


REFRAIN:
G|------------------------------------------------------------------------|
D|------------------------------------------------------------------------|
A|----0~----0~----0~----0~----5~----5~------------------------------------|
E|--2-----2-----2-----2-----3-----3-----0-----0---------0~----------------|
(B|--------------------------------------(3~)--(3~)-----------------------|)

INTERLUDE:
G|------------------------------------------------------------------------|
D|------------------------------------------------------------------------|
A|--4--5--2------4--5--2------4--5--2------4--5--2------------------------|
E|-----------2------------2------------2------------2---------------------|
One day we'll dance...



PLAYED UNTIL FADED OUT:
G|---------------------------------------66----66-------------------------|
D|--4--66-66-----77---77----44----44---4----44------66---77----77----44---|
A|---4---4--4--5---55----------------7------------4----45---55------------|
E|-----------------------77----77---------------------------------77------|

G|------------66----66----------------------------------------66----66----|
D|-----44---4----44------66----66----77----77----44----44---4----44-------|
A|--------7------------4-----4----45----55----------------7---------------|
E|--77----------------------------------------77----77--------------------|

...



ACORDES PARA GUITARRA

PIANO UKELELE


COMENTARIOS

Aún no hay comentarios,

¡escribe el primero!

Escribe una pregunta, duda o comentario sobre esta canción, te responderemos a la brevedad.

Las más tocadas de Sting

Toca una Canción al Azar de Sting