Compartir


Imprimir FAQ
+A
-A

Texto

Desplazamiento

Transportador

Color de Fondo

Archivos

-A
+A
Album:  Nothing Like The Sun

(Tabbed by Oli - *)


*******************************************************************
This tablature is a helping sketch. It doesn?t contain the correct 
sort of bars and notes (half, quarter...). Nevertheless, I'm sure 
you'll be able to figure out and I hope it will help you! - Oli
*******************************************************************



  INTRO:       [1x]
G|-----------------|
D|-----6-----------|
A|-9~----9---------|
E|---------7~------|


  VERSE 1:    [11x]
G|-----------------|
D|-------6---------|
A|---9~----9-------|
E|-7---------7~----|


  REFRAIN:
G|-----------------------------------------------------------------------------|
D|-------------------6------------6-----------6-----------6--------------------|
A|----------6--7-8-6----------9~----9-------6---------9~----9------------------|
E|-8-9--10-------------8-8------------7~--------8-8-----------7~---------------|
  I would gaze...  I'd go out of my mind...


  VERSE 2:    [11x]
G|-----------------|
D|-------6---------|
A|---9~----9-------|
E|-7---------7~----|


  REFRAIN:
G|-----------------------------------------------------------------------------|
D|-------------------6------------6-----------6-----------6-------------6------|
A|----------6--7-8-6----------9~----9-------6---------9~----9-------9~----9----|
E|-8-9--10-------------8-8------------7~--------8-8-----------7~--7---------7~-|
  You watch every night...  I'd go out of my mind...


  VERSE 3:
               [4x]
G|-----------------|
D|--8~-------------|
A|-----8~----------|
E|-----------------|
  My mistress' eyes...


  REFRAIN:
G|-----------------------------------------------------------------------------|
D|--------------6----------6----------------------6---------6------------------|
A|-6~--8~---9~----9------9---9------6~--8-6-----5---4-4--9~---9----------------|
E|------------------7~---------9------------4~------------------7~-------------|
  To howl at the moon...  I'd go out of my mind...


  FADE OUT:
G|-----------------|
D|-------6---------|
A|---9~----9-------|
E|-7---------7~----|


HERRAMIENTAS ACORDESWEB:


LETRA DE LA CANCIÓN:

Ver la letra sola (sin acordes)

OTRAS VERSIONES DE LA MISMA CANCIÓN:

Ver. 2 Ver. 3

DESCARGAR PDF / IMPRIMIR CANCIÓN



ACORDES PARA GUITARRA

PIANO UKELELE


TOP 20: Las más tocadas de Sting


Toca una Canción al Azar de Sting

Acordes

Cerrar

15.59

x

80