Lithium Sunset
Sting
Acordes

Subida por Arturoposada
Álbum: Mercury Falling ( 1996)



Cambiar Cifrado
Americano Latino

Cambiar Tonalidad
-1 +1

Partir Pantalla Imprimir FAQ

+A
-A
Album:  Mercury Falling

(Tabbed by Oli - *)


This tablature is a helping sketch. It doesn?t contain the correct
sort of bars and notes. Nevertheless, I hope it will help you!


INTRO:
G|------------------------------------------------------------------------|
D|------------------------------------------------------------------------|
A|--7-7--7-7-7------------------------------------------------------------| 6x
E|------9-----------------------------------------------------------------|

G|------------------------------------------------------------------------|
D|------------------------------------------------------------------------|
A|---7-7-7---------------------------------------------------------------|
E|--9---------------------------------------------------------------------|


VERSE 1:
G|------------------------------------------------------------------------|
D|----------------------------------4~---9~-------------------------------|
A|---------45-5--7-------45-5--7------------7-7---------------------------| 2x
E|--5-5--57-------5-5--57---------2---7---------970~----------------------|


INTERLUDE:
G|----------4~------7-----------------------------------------------------|
D|----4~--4--------------3~-----------------------------------------------|
A|---------2--2-4-5---4~--------------------------------------------------| 2x
E|--2----2----------------------------------------------------------------|
I've been scattered...

VERSE 2:
G|------------------------------------------------------------------------|
D|------------------------------------------------------------------------|
A|---------45-5--7-------45-5--7------------------------------------------|
E|--5-5--57-------5-5--57---------5-5-------------------------------------|


INTERLUDE:
G|------------------------------------------------------------------------|
D|------------------------------------------------------------------------|
A|--7-7--7-7-7------------------------------------------------------------| 6x
E|------9-----------------------------------------------------------------|

G|------------------------------------------------------------------------|
D|------------------------------------------------------------------------|
A|---7-7-7---------------------------------------------------------------|
E|--9---------------------------------------------------------------------|

FADE OUT:
G|------------------------------------------------------------------------|
D|------------------------------------------------------------------------|
A|---------45-5-----------------------------------------------------------|
E|--5-5--57---------------------------------------------------------------|
See mercury falling...



ACORDES PARA GUITARRA

PIANO UKELELE


COMENTARIOS

Aún no hay comentarios,

¡escribe el primero!

Escribe una pregunta, duda o comentario sobre esta canción, te responderemos a la brevedad.

Las más tocadas de Sting

Toca una Canción al Azar de Sting