Brand new day
Sting
Acordes

Subida por Permar
Álbum: Brand New Day ( 1999)


Más Versiones
Ver. 2

Cambiar Cifrado
Americano Latino

Cambiar Tonalidad
-1 +1

Partir Pantalla Imprimir FAQ

+A
-A
Intro:

B11 Esus4/6 F#sus4/6
||------0----------|-----9-------------|----11--------------|
||--------4----4---|-------10----------|-------12-----9-----|
||----------4------|----------9--9^11--|----------11--------|
||-----------------|-------------------|--------------------|
||---2-------------|---7---------------|--9-----------------|
||-----------------|-------------------|--------------------|

E B11 Esus4/6
|-----------------|---0-------0-------|----9---------------|
|--10-------------|-----4-------------|-------10-----9-----|
|-----9-----------|--------4-----4----|-----------9--------|
|-----------------|-------------------|--------------------|
|---------7-------|-------------------|--7-----------------|
|-----------------|-------------------|--------------------|

F#sus4/6
|-----11----------|------11-----------||
|--------12----9--|---------12--------||
|-----------11----|------------11-----||
|-----------------|-------------------||
|---9-------------|---9---------------||
|-----------------|-------------------||



Verse:

B Asus9
||-----------------------------|------------------------------|
||---------4-----------4-------|----------0-----------0-------|
||-------4---4-------4---4-----|--------2---2-------2---2-----|
||-----4-------4---4-------4---|------2-------2---2-------2---|
||---2-----------2-------------|----0-----------0-----------0-|
||-----------------------------|------------------------------|

A B
|-----------------------------|-----------------------------||
|---------2-----------2-------|---------4-----------4-------||
|-------2---2-------2---2-----|-------4---4-------4---4-----||
|-----2-------2---2-------2---|-----4-------4---4-------4---||
|---0-----------0-------------|---2-----------2-------------||
|-----------------------------|-----------------------------||



VERSE: B Asus9 A B (4x)


BIDGE: B Esus4/6 F#sus4/6 E (2x)


REFRAIN: B Asus9 A B Bsus4 (4x)


BIDGE: B Esus4/6 F#sus4/6 E (2x)


REFRAIN: B Asus9 A B Bsus4 (rest)




CHORDS: | E| A| D| G| B| e|

B11 | x| 0| x| 4| 4| 0|
Esus4/6 | x| 7| 7| 9|10| 9|
F#sus4/6 | x| 9| 9|11|12|11|
E | x| 7| 9| 9| 9| 7|
B | 2| 2| 4| 4| 4| 2|
Bsus4 | 2| 2| 4| 4| 5| 2|
Asus9 | x| 0| 2| 2| 0| x|
A | x| 0| 2| 2| 2| 0|
Asus4 | x| 0| 2| 2| 3| 0|

x=not use

ACORDES PARA GUITARRA

PIANO UKELELE


COMENTARIOS

Aún no hay comentarios,

¡escribe el primero!

Escribe una pregunta, duda o comentario sobre esta canción, te responderemos a la brevedad.

Las más tocadas de Sting

Toca una Canción al Azar de Sting