Heavy Cloud No Rain
Sting
Acordes

Subida por Erelec



Cambiar Cifrado
Americano Latino

Cambiar Tonalidad
-1 +1

Partir Pantalla Imprimir FAQ

+A
-A
Album:  Ten Summoner's Tales

(Tabbed by Oli - *)


This tablature is a helping sketch. It doesn?t contain the correct
sort of bars and notes. Nevertheless, I'm sure you'll be able to
figure out and I hope it will help you!


MAIN RIFF:
G|-------------------------------------------------------------------------|
D|-------5---77----5-7-----------------------------------------------------|
A|-----7---7-----7----(5)--------------------------------------------------|
E|--5----------------8---5-------------------------------------------------|

BRIDGE WITHIN THE MAIN RIFF:
G|-------------------------------------------------------------------------|
D|----5-7------------------------------------------------------------------|
A|--7----------------------------------------------------------------------|
E|--------5----------------------------------------------------------------|
Heavy cloud, but no rain...


MAIN RIFF - LOWER PART:
G|-------------------------------------------------------------------------|
D|--------------------2----0-1-2------2-2----------------------------------|
A|-3---1--33---1-2-3-----2----------------1-0------------------------------|
E|----3-3-----3-------------------0----------------------------------------|


INTERLUDE:
G|-------------------------------------------------------------------------|
D|-------------------------------------------------------------------------|
A|--3-3-5-55-----55555-----2--22-33355555---3-----1-2-3-3--------3-3-------|
E|------------555------5-5----------------------3----------3-5-3------0----|
The sun won't shine...


G|-------------------------------------------------------------------------|
D|--22---------------------------------------------------------------------|
A|----21-1--0--------------------------------------------------------------|
E|-------------------------------------------------------------------------|


ACORDES PARA GUITARRA

PIANO UKELELE


COMENTARIOS

Aún no hay comentarios,

¡escribe el primero!

Escribe una pregunta, duda o comentario sobre esta canción, te responderemos a la brevedad.

Las más tocadas de Sting

Toca una Canción al Azar de Sting