Island Of Souls
Sting
Acordes

Subida por HKEm7
Álbum: The Soul Cages ( 1991)



Cambiar Cifrado
Americano Latino

Cambiar Tonalidad
-1 +1

Partir Pantalla Imprimir FAQ

+A
-A
Album:  The Soul Cages

(Tabbed by Oli - *)


This tablature is a helping sketch. It doesn?t contain the correct
sort of bars and notes. Nevertheless, I'm sure you'll be able to
figure out and I hope it will help you!



INTRO
G|----7~-------------------------------------------------------------------|
D|-------------------------------------------------------------------------|
A|--5----------------------------------------------------------------------| 12x
E|-------------------------------------------------------------------------|

VERSE 1
G|---7-7-7-7-9-------------------------------------------------------------|
D|--------------5-5-5-5-5-7------------------------------------------------|
A|-5-----------------------------------------------------------------------| 4x
E|-------------------------------------------------------------------------|

G|---7~---7~---------------------------------------------------------------|
D|------------5~--5~-------------------------------------------------------|
A|--5----5-----------------------------------------------------------------|
E|-------------------------------------------------------------------------|

G|---7-7-7-7-9-------------------------------------------------------------|
D|--------------5-5-5-5-5-7------------------------------------------------|
A|-5-----------------------------------------------------------------------| 4x
E|-------------------------------------------------------------------------|

TRANSITION
G|-----5------------------------------------------------------------------|
D|-------------------------------------------------------------------------|
A|-3~----------------------------------------------------------------------|
E|------4~-----------------------------------------------------------------|
Billy would cry...

CONTINUING VERSE 1
G|---7-7-7-7-9-------------------------------------------------------------|
D|--------------5-5-5-5-5-7------------------------------------------------|
A|-5-----------------------------------------------------------------------| 4x
E|-------------------------------------------------------------------------|


INTERLUDE
G|-------------------------------------------------------------------------|
D|-------------------------------------------------------------------------|
A|-3~---------------------------------------------55~--55~-----------------|
E|-----4~--6~--6~---55~--55~--66~--66~--33~--33~------------55~--55~-------|
What else was there...

G|-------------------------------------------------------------------------|
D|-------------------------------------------------------------------------|
A|-----------------------------------5~------------------------------------|
E|-66~--66~--33~--33~--55~-66~--88~----------------------------------------|


VERSE 2
G|-------------------------------------------------------------------------|
D|----3~---0~--------------------------------------------------------------|
A|--3----0-----------------------------------------------------------------|
E|-------------------------------------------------------------------------|
Mm-bay mm-bay-day mm-bay... Trapped in the cage...

TRANSITION
G|-------------------------------------------------------------------------|
D|-------------------------------------------------------------------------|
A|-3~----------------------------------------------------------------------|
E|------4~-----------------------------------------------------------------|
Billy would cry...

CONTINUING VERSE 2
G|-------------------------------------------------------------------------|
D|----3~---0~--------------------------------------------------------------|
A|--3----0-----------------------------------------------------------------|
E|-------------------------------------------------------------------------|


INTERLUDE
G|-------------------------------------------------------------------------|
D|-------------------------------------------------------------------------|
A|-3~---------------------------------------------55~--55~-----------------|
E|-----4~--6~--6~---55~--55~--66~--66~--33~--33~------------55~--55~-------|
What else was there...

G|-------------------------------------------------------------------------|
D|-------------------------------------------------------------------------|
A|---------------------55~--55~-----------------------------------------5~-|
E|-66~--66~--33~--33~------------55~--55~--66~--66~--33~--55~--66~--88~----|


FADE OUT
G|-------------------------------------------------------------------------|
D|----3~---0~--------------------------------------------------------------|
A|--3----0-----------------------------------------------------------------|
E|-------------------------------------------------------------------------|
Mm-bay mm-bay-day mm-bay...



ACORDES PARA GUITARRA

PIANO UKELELE


COMENTARIOS

Aún no hay comentarios,

¡escribe el primero!

Escribe una pregunta, duda o comentario sobre esta canción, te responderemos a la brevedad.

Las más tocadas de Sting

Toca una Canción al Azar de Sting