Love Is Stronger Than Justice
Sting
Acordes

Subida por Ivan



Cambiar Cifrado
Americano Latino

Cambiar Tonalidad
-1 +1

Partir Pantalla Imprimir FAQ

+A
-A


Ver solo la LETRA
Album:  Ten Summoner's Tales

(Tabbed by Oli - *)


This tablature is a helping sketch containing the bass riffs of this song.
It doesn?t contain neither the correct order of the song nor the sort of
notes (quarter, half...). Nevertheless, I hope it will help you!

Suggestions of improvement are welcome as well as corrections - *


MAIN RIFF:
G|-------------2---------2--------------2---------------------------------|
D|---------2-4-------2-4------------2-4--------2--------------------------|
A|--0--3-4-------3-4---------0--3-4--------3-4----------------------------|
E|-----------------------------------------------3------------------------|

ONCE PLAYED WITHIN INTRO:
G|-------------2-4-5-4-2-0------------------------------------------------|
D|---------2-4-------------4-2--------------------------------------------|
A|--0--3-4----------------------------------------------------------------|
E|------------------------------------------------------------------------|


BRIDGE TO REFRAIN:
G|------------------------------------------------------------------------|
D|------2-2-4-------------------------------------------------------------|
A|--3-4-------3-----------------------------------------------------------|
E|------------------------------------------------------------------------|


REFRAIN:
G|------------------------------------------------------------------------|
D|--------0-2-3---3---5---5---5-------------------3---3---5---5---5-------|
A|-----3--------3---3---5---5---5--3----2-3---3-----3---3---5---5---5--3-0|
E|--3---------------------------------3-----3---3-------------------------|


OUTRO:
G|------------------------------------------------------------------------|
D|----7-7-7--5-5-7--------------------------------------------------------|
A|-----7-7--7-------------------------------------------------------------|
E|--5---------------------------------------------------------------------|


ACORDES PARA GUITARRA

PIANO UKELELE


COMENTARIOS

Aún no hay comentarios,

¡escribe el primero!

Escribe una pregunta, duda o comentario sobre esta canción, te responderemos a la brevedad.

Las más tocadas de Sting

Toca una Canción al Azar de Sting