Valparaiso
Sting
Acordes

Subida por Grober
Álbum: Mercury Falling ( 1996)


Más Versiones
Ver. 2 Ver. 3

Cambiar Cifrado
Americano Latino

Cambiar Tonalidad
-1 +1

Partir Pantalla Imprimir FAQ

+A
-A
Album:  Mercury Falling

(Tabbed by Oli - *)


This tablature is a helping sketch. It doesn?t contain the correct
sort of bars and notes. Nevertheless, I'm sure you'll be able to
figure out and hope it will help you!


INTRO & VERSE 1:
G|---------------------------------------------------------------------|
D|---------------------------------------------------------------------|
A|---------------------------------------------------------------------|
E|--0~--------------------------------0~-------------------------------|
Chase the dog star...

VERSE 2:
G|---------------------------------------------------------------------|
D|----------------0--2-------------------------------------------------|
A|-3--3--------------------------3--3----------------------------------|
E|-------3--3--3--------3--3--3--------3--3--3-------------------------|
Red the port light... Cross in the sky...

G|---------------------------------------------------------------------|
D|---------------------2---2-------------------------------------------|
A|-0--2--3--2--3--2-----------5-3--3--3--3-----------------------------|
E|-------------------0---0---------------------------------------------|
Under the moonlight...


BRIDGE:
G|---------------------------------------------------------------------|
D|----0--2--0-----0--2--------0--2----------2--0--2--0--2--0-----------|
A|-4-----------3-----------3--------3--0-------------------------------|
E|----------------------0----------------------------------------------|
And every road I walked would take me down to the sea...


VERSE 3:
G|---------------------------------------------------------------------|
D|----------------0--2-------------------------------------------------|
A|-3--3--------------------------3--3----------------------------------|
E|-------3--3--3--------3--3--3--------3--3--3-------------------------|
If I should die... See the ghost fly...

G|-------------------------------------------------2-----2-------------|
D|---------------------2---2-----------------------------------4-----4-|
A|-0--2--3-----0--2-----------5-3--3--33--3-----0-----0----------------|
E|----------3--------0---0----------------------------------2-----2----|
Under the moonlight...

BRIDGE TO OUTRO:
G|---------------------------------------------------------------------|
D|---------------------------------------------------------------------|
A|-3--3--3--3--3--3--3--3--3-------------------------------------------|
E|---------------------------------------------------------------------|

OUTRO / FADE OUT:
G|-9-7-7-9----7------------------7-7-7-9-------------------------------|
D|----9-----9------------7--7---9---9----------------------------------|
A|--------------10--10-------------------------------------------------| 13x
E|---------------------------------------------------------------------|

ACORDES PARA GUITARRA

PIANO UKELELE


COMENTARIOS

Aún no hay comentarios,

¡escribe el primero!

Escribe una pregunta, duda o comentario sobre esta canción, te responderemos a la brevedad.

Las más tocadas de Sting

Toca una Canción al Azar de Sting