When We Dance
Sting
Acordes

Subida por eyder2106
Álbum: Symphonicities ( 2010)



Cambiar Cifrado
Americano Latino

Cambiar Tonalidad
-1 +1

Partir Pantalla Imprimir FAQ

+A
-A


Ver solo la LETRA

(Tabbed by Oli - *)


This tablature is a helping sketch. It doesn?t contain the correct
sort of bars and notes. Nevertheless, I'm sure you'll be able to
figure out and I hope it will help you!



VERSE 1:
[4x] [1x] [3x]
G|-------------------|-----------------|-------------------|
D|*-----------------*|-----------------|*-----------------*|
A|*-7~-7~---7-7~-7~-*|-4~-4~---4-4~-4~-|*-7~-7~---7-7~-7~-*|
E|-------------------|-----------------|-------------------|

[1x] [1x]
G|-------------------|-----------------|
D|-------------------|-----------------|
A|-4~-4~---4-4~-4~---|-7~-7~---7-7~-7~-|
E|-------------------|-----------------|


REFRAIN:
G|-------------------------------------|
D|-------------------------------------|
A|-------------------------------------|
E|-7~-7~--4~-5~------------------------|


VERSE 2:
[3x] [1x] [1x]
G|-------------------|-----------------|-------------------|
D|*-----------------*|-----------------|-------------------|
A|*-7~-7~---7-7~-7~-*|-4~-4~---4-4~-4~-|-7~-7~---7-7~-7~---|
E|-------------------|-----------------|-------------------|


REFRAIN:
G|-------------------------------------|
D|-------------------------------------|
A|---------------7~-7~--4--------------|
E|-7~-7~--4~-5~-----------5~-----------|



BRIDGE:
[2x] [1x] [1x]
G|-------------------|-----------------|-------------------|
D|*-----------------*|-----------------|-------------------|
A|*-7~-7~---7-7~-7~-*|-4~-4~---4-4~-4~-|-7~-7~---7-7~-7~---|
E|-------------------|-----------------|-------------------|
I'm still in love with you


REFRAIN:
G|---------------------------------------------------------|
D|---------------4--4~--4----------------------------------|
A|------------------------------------------7~-7~--4-------|
E|-7~-7~--4~-5~----------5~---7~-7~--4~-5~-----------5~----|



INTERLUDE:
G|---------------------------------------------------------|
D|-----------------------------4---4-----------------------|
A|---------4--4-4------------4---4-----4-----4-------------|
E|-2--2--2--------4---4---2----------------4---4---4-------|
(B|-----------------2----------------------------2---------|)
If I could break down these walls...

G|---------------------------------------------------------|
D|-------4---4---------------------------------------------|
A|-----4---4-----------------------------------------------|
E|-2---------------5--5~---5--5~---------------------------|
(B|--------------------------------------------------------|)


BRIDGE:
G|---------------------------------------------------------|
D|---------------------------------------------------------|
A|--7~-7~--4--------7~-7~--4-4~----------------------------|
E|-----------5~--------------------------------------------|


VERSE 3:
[2x] [1x] [3x]
G|-------------------|-----------------|-------------------|
D|*-----------------*|-----------------|*-----------------*|
A|*-9~-9~---9-9~-9~-*|-6~-6~---6-6~-6~-|*-9~-9~---9-9~-9~-*|
E|-------------------|-----------------|-------------------|

[1x] [1x]
G|-------------------|-----------------|
D|-------------------|-----------------|
A|-6~-6~---6-6~-6~---|-9~-9~---9-9~-9~-|
E|-------------------|-----------------|


REFRAIN:
[3x] [4x]
G|-------------------------------|-------------------------|
D|*-----------------------------*|*-----------------------*|
A|*-4~-4~--------------------7~-*|*-9~-9~---6-------------*|
E|-------6--7~---4~-4~---4-------|-------------7~----------|



FADE OUT (TO BE PLAYED UNTIL FADED OUT):
G|---------------------------------------------------------|
D|*-------------------------------------------------------*|
A|*--------4--6--4----------------------------------------*|
E|--2--4-6-------------------------------------------------|



~ ~ ~ ~ ~ ~ ~ ~ ~ ~ ~ ~ ~ ~ ~ ~ ~ ~ ~ ~ ~ ~ ~ ~ ~ ~ ~ ~ ~ ~ ~ ~ ~ ~ ~ ~ ~ ~ ~ ~ ~ ~ ~
Suggestions of improvement are always welcome as well as corrections: *!
~ ~ ~ ~ ~ ~ ~ ~ ~ ~ ~ ~ ~ ~ ~ ~ ~ ~ ~ ~ ~ ~ ~ ~ ~ ~ ~ ~ ~ ~ ~ ~ ~ ~ ~ ~ ~ ~ ~ ~ ~ ~ ~



ACORDES PARA GUITARRA

PIANO UKELELE


COMENTARIOS

Aún no hay comentarios,

¡escribe el primero!

Escribe una pregunta, duda o comentario sobre esta canción, te responderemos a la brevedad.

Las más tocadas de Sting

Toca una Canción al Azar de Sting