You Still Touch Me
Sting
Acordes

Subida por joez16
Álbum: Mercury Falling ( 1996)


Más Versiones
Ver. 2

Cambiar Cifrado
Americano Latino

Cambiar Tonalidad
-1 +1

Partir Pantalla Imprimir FAQ

+A
-A

Dropped D
Tuning


e q e e q e 3x q q e q q
G---||----------------------||------------------------------------------
D---||*--------------------*||------------------------------------------
A---||*--------------------*||-----------0--0---------------------------
D---||---5--5--5--5--5--5---||--5--5--5---------------------------------
Intro

e q e e q e e q e e q e
G---||---------------------|--------------------|-----------------------
D---||*--------------------|--------------------|-----------------------
A---||*--5--5--5--5--5--5--|--4--4--4--4--4--4--|-----------------------
D---||---------------------|--------------------|-----------------------
Main Riff

e q e e q e e q e e q e e q e e q e
G---------------------|--------------------|--------------------|-------
D---------------------|--------------------|--------------------|-------
A---2--2--2--2--2--2--|--0--0--0--0--0--0--|--------------------|-------
D---------------------|--------------------|--5--5--5--5--5--5--|-------


e q e e q e e q e e q e e q e e q e
G---------------------|--------------------|--------------------|-------
D---------------------|--------------------|--------------------|-------
A---2--2--2--2--2--2--|--5--5--5--5--5--5--|--4--4--4--4--4--4--|-------
D---------------------|--------------------|--------------------|-------


e q e e q e e q e e q e e q e e q e
G---------------------|--------------------|---------------------||-----
D---------------------|--------------------|--------------------*||-----
A---2--2--2--2--2--2--|--0--0--0--0--0--0--|--------------------*||-----
D---------------------|--------------------|--3--3--3--5--5--5---||-----


e e e e e e e e e e e e e e e e
G---------------------------|--------------------------|----------------
D---------------------------|--------------------------|----------------
A---5--5--5--5--5--5--5--5--|--3--3--3--3--3--3--3--3--|----------------
D---------------------------|--------------------------|----------------

e e e e e e e e e e e e e e e e
G---------------------------|--------------------------|----------------
D---------------------------|--------------------------|----------------
A---2--2--2--2--2--2--2--2--|--1--1--1--1--1--1--1--1--|----------------
D---------------------------|--------------------------|----------------


e e e e e e e e e e e e e e e e w
G---------------------------|--------------------------|-----||---------
D---------------------------|--------------------------|-----||---------
A---------------------------|--------------------------|-----||---------
D---5--5--5--5--5--5--5--5--|--2--2--2--2--2--2--2--2--|--0--||---------




Submitted by: Mark E. Sechrist (*)

ACORDES PARA GUITARRA

PIANO UKELELE


COMENTARIOS

Aún no hay comentarios,

¡escribe el primero!

Escribe una pregunta, duda o comentario sobre esta canción, te responderemos a la brevedad.

Las más tocadas de Sting

Toca una Canción al Azar de Sting