Pushin' forward back
Temple Of The Dog
Acordes

Subida por Ihce121
Álbum: Temple of the Dog ( 1991)


Más Versiones
Ver. 2

Cambiar Cifrado
Americano Latino

Cambiar Tonalidad
-1 +1

Partir Pantalla Imprimir FAQ

+A
-A


Ver solo la LETRA
MAIN RIFF / INTRO (7/8 beat)

------------------------------------------------------------------------
------------------------------------------------------------------------
--------(8)------------(8)---(8)----------------------------------------
---------9-----9-----7--9--7--9-----9-----7--9--7-----------------------
---------9-----9-----7--9--7--9-----9-----7--9--7-----------------------
---------7-----7-----7--7--7--7-----7-----7--7--7-----------------------

Count: 1 & 2 & 3 & 4 & 5 & 6 & 7 &


VERSE 1

Mother mother found me on her step
Gracious mother held to to her breast
Until the day I started..

------------------------------------------------------------------------
------------------------------------------------------------------------
------------------------------------------------------------------------
------------------------------------------------------------------------
------------------------------------------------------------------------
---------7-----7-----5--7--5--7-----7-----5--7--5-----------------------
[_______________palm mute______________]

Count: 1 & 2 & 3 & 4 & 5 & 6 & 7 &


PRE-CHORUS 1

..pushing
Too late to cry she turned away
I started pushing
I saw no future in this lack

------------------------------------------------------------------------
------------------------------------------------------------------------
-------------------------------------7-7-7-7-7-7-(gtr 2)----------------
------------------------------------------------------------------------
------------------------------------------------------------------------
---------7-5-7-5-7-5-----------------7-5-7-5-7-5------------------------

Count: 1 & 2 & 3 & 4 & 5 & 6 & 7 & 1 & 2 & 3 & 4 & 5 & 6 & 7 &


CHORUS / MAIN RIFF

I started pushing pushing pushing forward back
I started pushing pushing pushing forward back


VERSE 2

Baby brother clinging to her hair
Gracious pleading not another soul to bare
He started..


PRE-CHORUS 2

..pushing
All my kings have fallen down
I started pushing
Fallen heroes feed the ground


CHORUS


BRIDGE (4/4 beat)

Falling down.. (great movie as well!)
Now I know her

------------------------------------------------------------------------
------------------------------------------------------------------------
------------------------------------------------------------------------
------------9/11--9-------------9---------------------------------------
---------------------11----/11-----11-10-9-----------------------------
----/9--7------------------------------------12--9----------------------

I know I'll never drown

--------
--------
--------
--9----
--11---
--9----


CHORUS

I was pushing pushing pushing forward back
I was pushing pushing pushing forward back


BRIDGE


CHORUS

ACORDES PARA GUITARRA

PIANO UKELELE


COMENTARIOS

Aún no hay comentarios,

¡escribe el primero!

Escribe una pregunta, duda o comentario sobre esta canción, te responderemos a la brevedad.

Las más tocadas de Temple Of The Dog

Toca una Canción al Azar de Temple Of The Dog