Your Saviour
Temple Of The Dog
Acordes

Subida por DarienG
Álbum: Temple of the Dog ( 1991)


Más Versiones
Ver. 2 Ver. 3 Ver. 4 Ver. 5 Ver. 6

Cambiar Cifrado
Americano Latino

Cambiar Tonalidad
-1 +1

Partir Pantalla Imprimir FAQ

+A
-A

Dropped-D tuning

-|------|-----|------------------------------|-------------------------------|
-|------|-----|------------------------------|-------------------------------|
-|------|-----|------------------------------|-------------------------------|
-|-0-2--|-----|-0-2-x-x-x-x-0-0--2-2-2-2p0---|-0-2-x-x-x-x-0-0--2-2-2-2p0----|
-|-0-2--|-----|-0-2------------------------2-|-0-2------------------------2--|
-|-0-2--|-----|-0-2--------------------------|-0-2---------------------------|
Intro/Verse, G1 12x
-|-------------------------------------------|-------------------------------|
-|-------------------------------------------|-------------------------------|
-|-------------------------------------------|-------------------------------|
-|-5-5--2-2--2-2--3-5-0-x-x-x-x-3-5vvv-3p0-0-|-0-2-x-x-x-x-0-0--2-2-2-2p0----|
-|-5-5--2-2--2-2--3-5-0----------------------|-0-2------------------------2--|
-|-5-5--2-2--2-2--3-5-0----------------------|-0-2---------------------------|

-|--------------------------|----------------------------|--------------------|
-|--------------------------|----------------------------|--------------------|
-|--------------------------|----------------------------|--------------------|
-|-5-0-x-x-x-x-3-5vvv-3p0-0-|-3-5-0-x-x-x-x-3-5vvv-3p0-0-|--------------------|
-|-5-0----------------------|-3-5-0----------------------|--------------------|
-|-5-0----------------------|-3-5-0----------------------|--------------------|
3x
-|-------------------------------------------|--------------------------------|
-|-------------------------------------------|--------------------------------|
-|-------------------------------2-----------|--------------------------------|
-|-0--2--0--2--5---2--0--2--0--2-2--0--2--5--|--------------------------------|
-|-0--2--0--2--5---2--0--2--0--2-0--0--2--5--|--------------------------------|
-|-0--2--0--2--5---2--0--2--0--2----0--2--5--|--------------------------------|
Chorus

-|------------------------------|--------------------------------------------|
-|------------------------------|--------------------------------------------|
-|------------------------------|--------------------------------------------|
-|-0-2-x-x-x-x-0-0--2-2-2-2p0---|-5-5--2-2--2-2--3-5-0-x-x-x-x-3-5vvv-3p0-0--|
-|-0-2------------------------2-|-5-5--2-2--2-2--3-5-0-----------------------|
-|-0-2--------------------------|-5-5--2-2--2-2--3-5-0-----------------------|
9x
-|------------------------------|--------------------------|------------------|
-|------------------------------|--------------------------|------------------|
-|------------------------------|--------------------------|------------------|
-|-0-2-x-x-x-x-0-0--2-2-2-2p0---|-5-0-x-x-x-x-3-5vvv-3p0-0-|------------------|
-|-0-2------------------------2-|-5-0----------------------|------------------|
-|-0-2--------------------------|-5-0----------------------|------------------|

-|----------------------------|-------------------------------------------|---|
-|----------------------------|-------------------------------------------|---|
-|----------------------------|-------------------------------2-----------|---|
-|-3-5-0-x-x-x-x-3-5vvv-3p0-0-|-0--2--0--2--5---2--0--2--0--2-2--0--2--5--|---|
-|-3-5-0----------------------|-0--2--0--2--5---2--0--2--0--2-0--0--2--5--|---|
-|-3-5-0----------------------|-0--2--0--2--5---2--0--2--0--2----0--2--5--|---|
3x Chorus
-|-------------------------------------------|--------------------------------|
-|-------------------------------------------|--------------------------------|
-|-------------------------------------------|--------------------------------|
-|-------------2--------------------0-0------|--------------------------------|
-|-------------------------------------------|--------------------------------|
-|-0-2--0-0--2-2-2--0-0-0--5-5-5--0-0-0--0-0-|--------------------------------|
G1, bottom, G2, top

-|-------------------------------------------|--------------------------------|
-|-------------------------------------------|--------------------------------|
-|-------------------------------------------|--------------------------------|
-|------0-0--0-2-2------------------0-0------|--------------------------------|
-|-------------------------------------------|--------------------------------|
-|-0-2--0-0--0-2-2--0-0-0--5-5-5--0-0-0--2-2-|--------------------------------|
same as before

-|---------------------------------------------|------------------------------|
-|---------------------------------------------|------------------------------|
-|---------------------------------------------|------------------------------|
-|------0-0--0-2-2------------------0-0--------|------------------------------|
-|---------------------------------------------|------------------------------|
-|-0-2--0-0--0-2-2--0-0-0--5-5-5--0-0-0--0-0-0-|------------------------------|

-|---------------------------------------------|-------|----------------------|
-|---------------------------------------------|-------|----------------------|
-|---------------------------------------------|-------|----------------------|
-|------0-0--0-2-2------------------0-0--------|-------|----------------------|
-|---------------------------------------------|-------|----------------------|
-|-0-2--0-0--0-2-2--0-0-0--5-5-5--0-0-0--2-2-2-|--15--|----------------------|
G1

-|-------------------------------------------|-----------------|--------------|
-|-------------------------------------------|-----------------|--------------|
-|-------------------------------------------|-----------------|--------------|
-|-------------2--------------------0-0------|-----------------|--------------|
-|-------------------------------------------|-----------------|--------------|
-|-0-2--0-0--0-2-2--0-0-0--5-5-5--0-0-0--0-0-|--x-/15--x-/15-|--------------|
Vox enter G1

-|-------------------------------------------|-----------------|--------------|
-|-------------------------------------------|-----------------|--------------|
-|-------------------------------------------|-----------------|--------------|
-|------0-0--0-2-2------------------0-0------|-----------------|--------------|
-|-------------------------------------------|-----------------|--------------|
-|-0-2--0-0--0-2-2--0-0-0--5-5-5--0-0-0--2-2-|--x-/15--x-/15-|--------------|
G1

-|-------------------------------------------|-----------------|--------------|
-|-------------------------------------------|-----------------|--------------|
-|-------------------------------------------|-----------------|--------------|
-|-------------2--------------------0-0------|-----------------|--------------|
-|-------------------------------------------|-----------------|--------------|
-|-0-2--0-0--0-2-2--0-0-0--5-5-5--0-0-0--0-0-|--x-/15--x-/15-|--------------|
G1

-|-------------------------------------------|--------------------------------|
-|-------------------------------------------|--------------------------------|
-|-------------------------------------------|--------------------------------|
-|------0-0--0-2-2------------------0-0------|--------------------------------|
-|-------------------------------------------|--------------------------------|
-|-0-2--0-0--0-2-2--0-0-0--5-5-5--0-0-0--2-2-|--------------------------------|

-|-------------------------------------------------|--------------------------|
-|-------------------------------------------------|--------------------------|
-|----------------------------2--------------------|--------------------------|
-|-0--2--0--2--5--2--0--2--0--2--0--2--5--2--0--2--|--------------------------|
-|-0--2--0--2--5--2--0--2--0--0--0--2--5--2--0--2--|--------------------------|
-|-0--2--0--2--5--2--0--2--0-----0--2--5--2--0--2--|--------------------------|
Solo rhythm, G1 3x
-|----------------------------------------|-----------------------------------|
-|----------------------------------------|-----------------------------------|
-|----------------------------2-----------|-----------------------------------|
-|-0--2--0--2--5--2--0--2--0--2--0--2--5--|-----------------------------------|
-|-0--2--0--2--5--2--0--2--0--0--0--2--5--|-----------------------------------|
-|-0--2--0--2--5--2--0--2--0-----0--2--5--|-----------------------------------|

-|-------------------------------------------------------------|--------------|
-|---------------------------------------------15-b-17--vvvvvv-|--------------|
-|-14vvvvvvv-14vvvvvvvv-14vvvvvvvv-14vvvvvvv------------------|--------------|
-|-------------------------------------------------------------|--------------|
-|-------------------------------------------------------------|--------------|
-|-------------------------------------------------------------|--------------|
Solo (w/wah) wide vibrato *

-|-12-15------------------------------------------|---------------------------|
-|-------12----------------------12---------------|---------------------------|
-|----------14b15-15r14-12-14-14----12vvv---/---|---------------------------|
-|-------------------------------------------/---|---------------------------|
-|------------------------------------------------|---------------------------|
-|------------------------------------------------|---------------------------|

-|-3p0-0-----5p3p0-------5p3p0------------------------------------------|-----|
-|-------5p3-------5p3p0-------5p3p0-5p3p0-0----------------------------|-----|
-|-------------------------------------------2p0-2b3-2b3r2-2b3vvvvvvv/--|-----|
-|----------------------------------------------------------------------|-----|
-|----------------------------------------------------------------------|-----|
-|----------------------------------------------------------------------|-----|

-|-15p12----------------------------------------------------------------|-----|
-|-------12----12h15p12----12h15p12----15p12----12h15p12----12h15p12----|-----|
-|----------14----------14----------14-------14----------14----------14-|-----|
-|----------------------------------------------------------------------|-----|
-|----------------------------------------------------------------------|-----|
-|----------------------------------------------------------------------|-----|

-|-------------------------------------------------------------------------|--|
-|-12h15p12----12h15p12----12h15p12----12h15p12----12h15p12-15b17vvvvvvv--|--|
-|----------14----------14----------14----------14-------------------------|--|
-|-------------------------------------------------------------------------|--|
-|-------------------------------------------------------------------------|--|
-|-------------------------------------------------------------------------|--|

-|------------------------------|---------------------------------------------|
-|------------------------------|---------------------------------------------|
-|------------------------------|---------------------------------------------|
-|-0-2-x-x-x-x-0-0--2-2-2-2p0---|---------------------------------------------|
-|-0-2------------------------2-|---------------------------------------------|
-|-0-2--------------------------|---------------------------------------------|
8x
-|-------------------------------------|-------------|------------------------|
-|-7--5--------------------------------|-7--5--------|------------------------|
-|-7--7--------------------9--6--------|-7--7--------|------------------------|
-|-0--0--------4--6--------7--7--------|-0--0--------|------------------------|
-|-0--0--------4-----------0--0--------|-0--0--------|------------------------|
-|-0--0--------4-----------0--0--------|-0--0--------|------------------------|
let all chords ring 4x 4x End

ACORDES PARA GUITARRA

PIANO UKELELE


COMENTARIOS

Aún no hay comentarios,

¡escribe el primero!

Escribe una pregunta, duda o comentario sobre esta canción, te responderemos a la brevedad.

Las más tocadas de Temple Of The Dog

Toca una Canción al Azar de Temple Of The Dog