Reach Down
Temple Of The Dog
Acordes

Subida por Juan1402
Álbum: Temple of the Dog ( 1991)


Más Versiones
Ver. 2 Ver. 3 Ver. 4 Ver. 5 Ver. 6

Cambiar Cifrado
Americano Latino

Cambiar Tonalidad
-1 +1

Partir Pantalla Imprimir FAQ

+A
-A

-|----|-------------------|---------------------------------------|-----------|
-|----|--------------0----|---------------------------------------|-----------|
-|----|--------------0----|-5-5-5--2---------5--------------------|-----------|
-|----|--------------0----|-5-5-5--2--2-2-2--5---7-5-7-5--7-5-7-5-|-----------|
-|----|------7-------5---|-3-3-3--0--2-2-2--3---7-5-7-5--7-5-7-5-|-----------|
-|-9-|-0-/7---3b-0--3---|-----------0-0-0--3---5-3-5-3--5-3-5-3-|-----------|
Intro 16x Pre-chorus, G1

-|-0-0-0-----------------------------------|---------------------|------------|
-|-1-1-1--2----------1---------------------|---------------0-----|------------|
-|-0-0-0--2----------0---2-0-2-0--2-0-2-0--|---------------0-----|------------|
-|-2-2-2--2---2-2-2--2---2-0-2-0--2-0-2-0--|---------------0-----|------------|
-|-3-3-3--0---2-2-2--3---------------------|-------7-------5----|------------|
-|------------0-0-0--3---------------------|-0--/7---3b-0--3----|------------|
Pre-Chorus, G2 2x

-|-------------------------------------|-0-0-0-------------------------------|
-|-------------------------------------|-1-1-1-2--------1--------------------|
-|-5-5-5-2---------5-------------------|-0-0-0-2--------0--2-0-2-0--2-0-2-0--|
-|-5-5-5-2--2-2-2--5--7-5-7-5--7-5-7-5-|-2-2-2-2--2-2-2-2--2-0-2-0--2-0-2-0--|
-|-3-3-3-0--2-2-2--3--7-5-7-5--7-5-7-5-|-3-3-3-0--2-2-2-3--------------------|
-|----------0-0-0--3--5-3-5-3--5-3-5-3-|----------0-0-0-3--------------------|
Pre-Chorus, G1 Pre-Chorus, G2

-|--------0--|--------------------|-----------------|-------------------------|
-|--------x--|---------------0----|-----------------|-------------------------|
-|--------x--|---------------0----|-----------------|-------------------------|
-|--------x--|---------------0----|--2-2--2-0-2--2--|-------------------------|
-|-----------|------7--------5---|--0-0--0------2--|-------------------------|
-|-0---------|-0-/7---3b--0--3---|--------------0--|-------------------------|
Chorus 6x
-|------------------|---------|--------------------------------------------|--|
-|---------------0--|---------|-xx-----------------------------------------|--|
-|---------------0--|---------|-xx-14b16r14-12^vvvvvv---15-14-12-14b16r14--|--|
-|---------------0--|-14vvvvv-|--------------------------------------------|--|
-|------7--------5--|---------|--------------------------------------------|--|
-|-0-/7---3b--0--3--|---------|--------------------------------------------|--|
Solo, Rhythm 4x Solo, Mike p. harm.
-|----------------------|----|-0-0------------------------------------|-------|
-|----------------------|-3/-|-0-0------------------------------------|-------|
-|-12vvvv---------------|----|----------------------------------------|-------|
-|---------14-12-14vvv-|----|---------------------12-12--12-12-12---|-------|
-|----------------------|----|------------10-12h14--------------------|-------|
-|----------------------|----|------10h12-----------------------------|-------|

-|---------------|---------------------------------------|--------------------|
-|---------------|-15b17vvvv-15p12----12-----------------|--------------------|
-|-------12vvvvv-|-----------------14----14b16------r14-|--------------------|
-|-12h14---------|---------------------------------------|--------------------|
-|---------------|---------------------------------------|--------------------|
-|---------------|---------------------------------------|--------------------|
grad. bend

-|--------------------|-------------------------------------|-----------------|
-|---------------0----|-------------------------------------|-----------------|
-|---------------0----|-5-5-5-2--------5--------------------|-----------------|
-|---------------0----|-5-5-5-2--2-2-2-5--7-5-7-5--7-5-7-5--|-----------------|
-|------7--------5---|-3-3-3-0--2-2-2-3--7-5-7-5--7-5-7-5--|-----------------|
-|-0-/7---3b--0--3---|----------0-0-0-3--5-3-5-3--5-3-5-3--|-----------------|
verse 8x Pre-chorus, G1

-|-0-0-0-------------------------------|------------------|-------------------|
-|-1-1-1-2--------1--------------------|---------------0--|-------------------|
-|-0-0-0-2--------0--2-0-2-0--2-0-2-0--|---------------0--|-------------------|
-|-2-2-2-2--2-2-2-2--2-0-2-0--2-0-2-0--|---------------0--|-------------------|
-|-3-3-3-0--2-2-2-3--------------------|------7--------5--|-------------------|
-|----------0-0-0-3--------------------|-0-/7---3b--0--3--|-------------------|
Pre-Chorus, G2 2x

-|------------------------------------|-0-0-0--------------------------------|
-|------------------------------------|-1-1-1-2--------1---------------------|
-|-5-5-5-2--------5-------------------|-0-0-0-2--------0--2-0-2-0--2-0-2-0---|
-|-5-5-5-2--2-2-2-5--7-5-7-5--7-5-7-5-|-2-2-2-2--2-2-2-2--2-0-2-0--2-0-2-0---|
-|-3-3-3-0--2-2-2-3--7-5-7-5--7-5-7-5-|-3-3-3-0--2-2-2-3---------------------|
-|----------0-0-0-3--5-3-5-3--5-3-5-3-|----------0-0-0-3---------------------|
Pre-Chorus, G1 Pre-Chorus, G2

-|-----------|------------------|------------------|--------------------------|
-|-----------|---------------0--|------------------|--------------------------|
-|-----------|---------------0--|------------------|--------------------------|
-|-----------|---------------0--|--2--2--2--0-2-2--|--------------------------|
-|-----------|------7--------5--|--0--0--0------2--|--------------------------|
-|-0----12^--|-0-/7---3b--0--3--|---------------0--|--------------------------|
Chorus 6x
-|-------------------|---------|----------------------------------------------|
-|-------------------|---------|----------------------------------------------|
-|-------------------|---------|----------------------------------------------|
-|-------------------|---------|----------------------------------------------|
-|-------------------|-5--7---|----------------------------------------------|
-|-------------------|---------|----------------------------------------------|
Solo forever G1 plays this every bar for awhile, then solos w/ G2

ACORDES PARA GUITARRA

PIANO UKELELE


COMENTARIOS

Aún no hay comentarios,

¡escribe el primero!

Escribe una pregunta, duda o comentario sobre esta canción, te responderemos a la brevedad.

Las más tocadas de Temple Of The Dog

Toca una Canción al Azar de Temple Of The Dog