Wooden Jesus
Temple Of The Dog
Acordes

Subida por siajesusmiami
Álbum: Temple of the Dog ( 1991)


Más Versiones
Ver. 2 Ver. 3 Ver. 4 Ver. 5 Ver. 6

Cambiar Cifrado
Americano Latino

Cambiar Tonalidad
-1 +1

Partir Pantalla Imprimir FAQ

+A
-A
-Standard Tuning-
-This is my favorite track from this album-

-Intro-
-|----------|-0--------0----0----0--|--3--3----5--5----7--7----5--5--|--------
-|----------|-3-/-5----3----8----3--|--3--3----5--5----7--7----5--5--|--------
-|----------|-2-/-4----2----7----2--|--0--0----0--0----0--0----0--0--|--------
-|----------|-0--------0----0----0--|--5--5----7--7----9--9----7--7--|--------
-|----------|-----------------------|--------------------------------|--------
-|----------|-----------------------|--------------------------------|--------


-|----------0------------|------------------------0--|--------------|---------
-|-----------------------|-3--3--x-x--3-----------0--|-3--3--x-x--3-|---------
-|-----------------------|-5--5--x-x--5-----------0--|-5--5--x-x--5-|---------
-|-----------------------|-4--4--x-x--4-----------2--|-4--4--x-x--4-|---------
-|--3---2---3---2--------|-5--5--x-x--5-----------2--|-5--5--x-x--5-|---------
-|--1---0---1---0--------|---------------10--0---0--|--------------|---------

-|-0--------0----0----0--|--3--3----5--5----7--7----5--5--|----------0-----|--
-|-3-/-5----3----8----3--|--3--3----5--5----7--7----5--5--|----------------|--
-|-2-/-4----2----7----2--|--0--0----0--0----0--0----0--0--|----------------|--
-|-0--------0----0----0--|--5--5----7--7----9--9----7--7--|----------------|--
-|-----------------------|--------------------------------|--3---2---3---2-|--
-|-----------------------|--------------------------------|--1---0---1---0-|--

-|------------------------0--|--------------|---------|-----------------------
-|-3--3--x-x--3-----------0--|-3--3--x-x--3-|---------|-----------------------
-|-5--5--x-x--5-----------0--|-5--5--x-x--5-|---------|-----------------------
-|-4--4--x-x--4-----------2--|-4--4--x-x--4-|---------|-----------------------
-|-5--5--x-x--5-----------2--|-5--5--x-x--5-|---------|-----------------------
-|---------------10--0---0--|--------------|-10--0--|-----------------------


-|----0----------------------|--------------------------------------3-0-3-3-|-
-|----0---3--3--x-x--3-------|------------------------3-3---3-3-3-5---------|-
-|----0---5--5--x-x--5-------|-2b3-2b3r2-2b3r2-0-0-/4-----4-----------------|-
-|----2---4--4--x-x--4-------|----------------------------------------------|-
-|----2---5--5--x-x--5-------|----------------------------------------------|-
-|-0--0-----------------10--|--------------------------------------------
-|-5b6---6--6r5-/----------12----------12----------------------------|--------
-|----------------------12----12-15b17----15p12----12----------------|--------
-|----------------14b16-------------------------14----14b15r14-12----|--------
-|----------------------------------------------------------------14-|--------
-|-------------------------------------------------------------------|--------
-|-------------------------------------------------------------------|--------

-|----------------12vvv-12-12-12-12-12---------------|------------------------
-|-------------------------------------15-12-15-12--|------------------------
-|-12vvvvvvv-12-------------------------------------|------------------------
-|---------------------------------------------------|------------------------
-|---------------------------------------------------|------------------------
-|---------------------------------------------------|------------------------


-|--------------------------------------12-12-12-12-12-12--|------------|----
-|--------------------------------------12-12-12-12-12-12--|------------|----
-|-14b15--15-15-15-15-15r14-12----12------------------------|------------|----
-|-----------------------------14----14---------------------|------------|----
-|----------------------------------------------------------|------------|----
-|----------------------------------------------------------|-0----10---|----

-|-0--0---------------|-7--7-x-x--|-7-/-9-9-7-x-x-7-x-x-7-/-9-9-9-x-x-7-x-x-|-
-|-0--0--3--3--x-x--3-|-x--x-x-x--|-x-----x-x-x-x-x-x-x-x-----x-x-x-x-x-x-x-|-
-|-0--0--5--5--x-x--5-|-7--7-x-x--|-7-/-9-9-7-x-x-7-x-x-7-/-9-9-9-x-x-7-x-x-|-
-|-2--2--4--4--x-x--4-|-----------|-----------------------------------------|-
-|-2--2--5--5--x-x--5-|-----------|-----------------------------------------|-
-|-0--0---------------|-----------|-----------------------------------------|-


-|-7-/-9-9-7-x-x-7-7-7-9-9-9-9-9-9-9-9-9-9-x-7-|------------------------------
-|-x-----x-x-x-x-x-x-x-x-x-x-x-x-x-x-x-x-x-x-x-|------------------------------
-|-7-/-9-9-7-x-x-7-7-7-9-9-9-9-9-9-9-9-9-9-x-7-|------------------------------
-|---------------------------------------------|------------------------------
-|---------------------------------------------|------------------------------
-|---------------------------------------------|------------------------------


-|-15-15-15-15-x-x-15-15-15-x-x-15-x-15-x-15-15-15-15-15-15-15-15-15-|--------
-|-15-15-15-15-x-x-15-15-15-x-x-15-x-15-x-15-15-15-15-15-15-15-15-15-|--------
-|-------------------------------------------------------------------|--------
-|-------------------------------------------------------------------|--------
-|-------------------------------------------------------------------|--------
-|-------------------------------------------------------------------|--------

ACORDES PARA GUITARRA

PIANO UKELELE


COMENTARIOS

Aún no hay comentarios,

¡escribe el primero!

Escribe una pregunta, duda o comentario sobre esta canción, te responderemos a la brevedad.

Las más tocadas de Temple Of The Dog

Toca una Canción al Azar de Temple Of The Dog