131 Jeová Nos Põe a Salvo (Acordes)

Testemunhas de Jeová

Subida por Andy

Compartir


Cambiar Cifrado
Americano Latino

Cambiar Tonalidad
-1 +1
Imprimir FAQ

Para cambio de tonalidad, zoom, cambio de cifrado, haz clic en este botón


CONSEJO:

Afina tu guitarra antes de tocar. Prueba nuestro afinador en linea.

+A
-A

Texto

Desplazamiento

Transportador

Color de Fondo

Archivos

TONALIDAD, TAMAÑO, CIFRADO, SCROL.

Nos renovamos: Ahora puedes cambiar TODO haciendo clic en ICONO de la Guitarra () que aparece en la parte inferior de esta página.


LETRA CON ACORDES

E|-----------------------------------1------------------------------|
B|---------------------------------3--------------------------------|
G|--2-----0-2------------------2-------2-3-0------------------------|
D|----3-3-----3-3-2-3-0--2-3-----------------1-0----------0-0-2-2-3-|
A|----5-------5-------0--------------------------4------4-0-------5-|
E|--------------------------------------------------6-5-------------|

E|------------------------------------------------------------------|
B|----------1-------------------------------------------------------|
G|--0-2-0-2---3-3---2-0--2-3--------0----2----0---------2---------2-|
D|----0---0---0-------0--------2--3-0----0------3-2---0----0--2-2---|
A|------------------------------------4----4---------------0--4-----|
E|------------------------------------------------------------------|

E|------------------------------------------------------------------|
B|---------------------0------2-----3-------------------------------|
G|--2---------2--2-2-------------0----2---2-0-0---------0---------2-|
D|----4-0---4-2--------0-4-2--2-----4-0---0------4-2--4-0-4-2-4-0---|
A|------0------------4---------------------------5----5---5---5-2-4-|
E|------------------------------------------------------------------|

E|----------------------------------------------------------------------|
B|------0-----0------------0----0-----------0-----0---------------2-----|
G|--2-2-0-0-----2----------0-0--0-2---2-0-2-0-0---0-2-------------0-----|
D|--0-----------0-4-2-0-----------0---0---0-0-0---0---4-2-0-0-2-------0-|
A|----3---2---4-------2-3----2--4-------------------------2---2---0---0-|
E|-------------------------3--------------------------------------------|


Video Clip de 131 Jeová Nos Põe a Salvo


ACORDES PARA GUITARRA

PIANO UKELELE


TOP 20: Las más tocadas de Testemunhas de Jeová


Acordes

Cerrar

23.06


209