Apeguemo-nos À Nossa Esperança (Acordes)

Testemunhas de Jeová

Subida por JERRY

Compartir


Cambiar Cifrado
Americano Latino

Cambiar Tonalidad
-1 +1
Imprimir FAQ

Para cambio de tonalidad, zoom, cambio de cifrado, haz clic en este botón


CONSEJO:

Afina tu guitarra antes de tocar. Prueba nuestro afinador en linea.

+A
-A

Texto

Desplazamiento

Transportador

Color de Fondo

Archivos

TONALIDAD, TAMAÑO, CIFRADO, SCROL.

Nos renovamos: Ahora puedes cambiar TODO haciendo clic en ICONO de la Guitarra () que aparece en la parte inferior de esta página.


LETRA CON ACORDES

E|-------------------------------------------------------|
B|-------------------------------------------------------|
G|--2--2-2-2--0-------0---------2--2-2-2--0-------0------|
D|--0------3--2-3-2-3-0-2-3--0--0------3--2-3-2-3-0-2-0--|
A|------------------------5--1----------------------4-0--|
E|-------------------------------------------------------|

E|---------------------------------------------------|
B|---------------------------------------------------|
G|--2--2-2-3--0---0----0-2------------0--0-----------|
D|--0------5--0-3-2--3------3--0--2-3-0----3-2--3--2-|
A|----------------3------3--3--1-------------2-----4-|
E|---------------------------------------------------|

E|---------------------------------------------------|
B|---------0--------------------------------2--------|
G|--2--2-2-0--0--------0-2-----------0--0------------|
D|--0---------0-4-2--4-2-4--4-0--0-0----0-4-2--0-2-4-|
A|----------------4---------1-2------2------0------5-|
E|---------------------------------------------------|

E|---------------------------------------------------|
B|---------0--------------------------------2----2---|
G|--2--2-2-0--0--------0-2-----------0--0--------0---|
D|--0---------0-4-2--4-2-4--4-0--0-0----0-4-2--0---0-|
A|----------------4---------1-2------2------0----0-0-|
E|---------------------------------------------------|



D         G         A          Bm
Homens estão muito longe da verdade;

C           F       A         D
Correm, querendo o vento alcançar.

D         G         A   Bm
Não vão mudar sua realidade;

C        F       A         D
Não poderão a ninguém salvar.


(REFRÃO)

D         G         A      Bm
Cantem alegres, o Reino chegou!

   C        F          A         D
Do medo, Jesus, nosso Rei, nos livrou.

D         G      A        Bm
Muito em breve o mal findará,

C           F     A         D
E essa certeza coragem nos dá.


 D         G      A           Bm
"O grande dia de Deus está chegando",

C           F       A         D
Essa mensagem nós temos de pregar

D         G         A          Bm
Logo, ninguém vai dizer: "Até quando?";

C     F           A     D
A criação, Deus libertará.



(REFRÃO)

D         G         A      Bm
Cantem alegres, o Reino chegou!

   C        F          A         D
Do medo, Jesus, nosso Rei, nos livrou.

D         G      A        Bm
Muito em breve o mal findará,

C           F     A         D
E essa certeza coragem nos dá.

Video Clip de Apeguemo-nos À Nossa Esperança


ACORDES PARA GUITARRA

PIANO UKELELE
D
G
A
Bm
C
F


TOP 20: Las más tocadas de Testemunhas de Jeová


Acordes

Cerrar
D
G
A
Bm
C
F

19.40


198