134 - Imagine a Si Mesmo No Paraíso (Acordes)

Testemunhas de Jeová

Subida por mnizetich

Compartir


Cambiar Cifrado
Americano Latino

Cambiar Tonalidad
-1 +1
Imprimir FAQ

Para cambio de tonalidad, zoom, cambio de cifrado, haz clic en este botón


CONSEJO:

Afina tu guitarra antes de tocar. Prueba nuestro afinador en linea.

+A
-A

Texto

Desplazamiento

Transportador

Color de Fondo

Archivos

TONALIDAD, TAMAÑO, CIFRADO, SCROL.

Nos renovamos: Ahora puedes cambiar TODO haciendo clic en ICONO de la Guitarra () que aparece en la parte inferior de esta página.


LETRA CON ACORDES

E|----------------------------------------------------------------------|
B|--------------------------------9-8-9--8----8-------------------------|
G|-------------------10-8-8---8-------------10----8----10---------------|
D|--8-11-10-10----10--------------------------------10------------------|
A|----------------------------------------------------------------------|
E|----------------------------------------------------------------------|

E|-----------------------------------------------------------------|
B|------8-9------------------------------8-11--9-8-8?9-------------|
G|-10---------------------------------9-----------------8----------|
D|----------11---11-10-8-10---10-----------------------------------|
A|-----------------------------------------------------------------|
E|-----------------------------------------------------------------|

E|-----------------------------------------------------------------|
B|------------------------------------9-8-9--8-9-11--8-------------|
G|---------------------10-8-8---8------------------------10--------|
D|-8-11-10-10--10--------------------------------------------------|
A|-----------------------------------------------------------------|
E|-----------------------------------------------------------------|

E|---------------------------------------------------------8-8----------|
B|-------------8-----8-9--8--------------9--8-9-9--8-9-9--------9-11----|
G|-10-1O-8-10----10---------8-------------------------------------------|
D|------------------------------10-10-----------------------------------|
A|----------------------------------------------------------------------|
E|----------------------------------------------------------------------|


Refrão:


E|----9--8-----8---------------------------------------------|
B|-11------11-------11--9-8-9------8-9-9--8-9-9--11-8--------|
G|----------------8------------10---------------------8------|
D|-----------------------------------------------------------|
A|-----------------------------------------------------------|
E|-----------------------------------------------------------|

E|------------------------------9--8------8-------------------------8-8---9---------------|
B|------------------------8-9---------11------11--9--8-9-9--11----------------11--9-9-----|
G|-8--8----------8-10---------------------------------------------------------------------|
D|--------11-11---------------------------------------------------------------------------|
A|----------------------------------------------------------------------------------------|
E|----------------------------------------------------------------------------------------|


Video Clip de 134 - Imagine a Si Mesmo No Paraíso


ACORDES PARA GUITARRA

PIANO UKELELE


TOP 20: Las más tocadas de Testemunhas de Jeová


Acordes

Cerrar

02.53


182